PrimaNota.ru - самый крупный в мире бесплатный архив песенных текстов, аккордов, табулатур и нот


Misc Unsigned Bands - Attack On Nova - Unborn - таба

Регистрация Запомнить меня
Войти через:  Facebook Google Twitter Vk Yandex Mail.ru

Misc Unsigned Bands - Attack On Nova - Unborn - таба

Печатать
Просмотров: 87
Unborn
C# Standard Tuning
Listen to song for rhythm patterns and timing.



C#|-0-------0------------------------------------------------|
G#|-0-------0------------------------------------------------|
E |-0-------0--------0---------------------------------------|
B |-2-------0--------0-------0--0----------------------------|X1 at very Slow tempo
F#|-2-------2--------3-------5--5----------------------------|X2 at faster Tempo
C#|-0-------3--------5-------7--8----------------------------|

Transition into pre-verse:



C#|-0-------0------------------------------------------------|
G#|-0-------0------------------------------------------------|
E |-0-------0--------0---------------------------------------|
B |-2-------0--------0-------0--0-------4--------------------|X1
F#|-2-------2--------3-------5--5-------5--------------------|
C#|-0-------3--------5-------7--8----------------------------|

Pre-Verse:

Lyrics; Pushing forth I'll change the nature of my world or Do I just adjust into
What becomes the best of us!
                                                  And now I see
C#|-------------------------------------7-------------------|
G#|-------------------------------------8-------------------|
E |-5---7---5-----4------5-------7------9-------5----7------|
B |-5---7---5-----4------5-------7------9-------5----7------|X1
F#|-3---5---3-----2------3-------5------7-------3----5------|
C#|-------------------------------------0-------------------|


Verse:
Lyrics;
Your waking up,  Into a Dream,   A world that you control...The Kind you'd like to know. And
Open your eyes up and breathe... All this deceptive air... So full of Love and Care!

C#|--------------------------------------------------------|
G#|--------------------------------------------------------|
E |-------------0-5-4----0-2-4----0-2-0--------------------|
B |-9-10-9------4--------1--------1------------------------|X2
F#|-7-----------5--------2--------2------------------------|
C#|-0------------------------------------------------------|

Chorus:
And open your eyes up and breathe!
All this deceptive air! 
So full of love and care!

C#|---2-3-2---------------3-------5------------------------|
G#|---5---------7-8-7-----1-------3------------------------|
E |---4---------5---------2-------4------------------------|
B |---2---------5---------2--------------------------------|X2
F#|-----------------------0-------2------------------------|
C#|--------------------------------------------------------|

Transition from chorus to re-intro again

C#|------------------|
G#|------------------|
E |----5------7------|
B |------------------|
F#|----3------5------|
C#|------------------|

REPEAT ABOVE from Intro faster part
Middle:
You Don't really know what you want. Really just ask what we need.
Hoping for the best now. And....

C#|---7----------------------------------------------------|
G#|---8-------------3--------------------------------------|
E |---9------5------------2----4---------------------------|
B |---9------4------------1----1---------------------------|
F#|---7------5------3-----2----2---------------------------|X8
C#|--------------------------------------------------------|

Repeat Intro to end Note that hangs
Добавлено: 16.06.2015
Другие материалы по этой песне:
  • Аккорды и текст

Страница создана 16.06.2015
http://primanota.ru/misc-unsigned-bands/attack-on-nova-unborn-chords.htm
Привет, Гость.
Предлагаем пройти революционный курс по гитаре.
Подарок от PrimaNota.Ru, забирай!