PrimaNota.ru - самый крупный в мире бесплатный архив песенных текстов, аккордов, табулатур и нот


Misc Unsigned Bands - Calling All Captains - I Swear This Is The Last Time - таба, видео

Регистрация Запомнить меня
Войти через:  Facebook Google Twitter Vk Yandex Mail.ru

Misc Unsigned Bands - Calling All Captains - I Swear This Is The Last Time - таба, видео

Печатать
Просмотров: 159
Уроки эстрадного вокала в Санкт-Петербурге
Intro x2
------------------------------------------------------------------------|
------------------------------------------------------------------------|
--7-7--9/11-11----------6/7-7---------9/11-11---------------------------|
--x-x--x-x--x---5-55----x-x-x---7-77--x-x--x---0-00-xxxx----------------|
--5-5--7/9--9---5-55----4/5-5---7-77--7/9--9---0-00-xxxx----------------|
----------------5-55------------7-77-----------0-00-xxxx----------------|


------------------------------------------------------------------------|
------------------------------------------------------------------------|
--7-7--9/11-11----------6/7-7---------11/9--9---7-7777------------------|
--x-x--x-x--x---5-55----x-x-x---7-77--x--x--x---x-xxxx------------------|
--5-5--7/9--9---5-55----4/5-5---7-77--9-/7--7---5-5555------------------|
----------------5-55------------7-77------------------------------------|


Verse x2
---------------------------------------------------------------------------------------|
---------------------------------------------------------------------------------------|
--7-7-77-7-7-7-7-77-77-7-7-77-7-7-7-7-77-77--------------------------------------------|
--x-x-xx-x-x-x-x-xx-xx-x-x-xx-x-x-x-x-xx-xx----5-55-5-5-5-5-55-55-5-5-55-5-5-5-5-55-55-|
--5-5-55-5-5-5-5-55-55-5-5-55-5-5-5-5-55-55----5-55-5-5-5-5-55-55-5-5-55-5-5-5-5-55-55-|
-----------------------------------------------5-55-5-5-5-5-55-55-5-5-55-5-5-5-5-55-55-|


Prechorus:
------------------------------------------------------------------------|
------------------------------------------------------------------------|
------------------------------------------------------------------------|
--9-9-9999--5-5-5555--0-0-0000-7-7-7777---9-9-9999--5-5-5555--77777777--|
--9-9-9999--5-5-5555--0-0-0000-7-7-7777---9-9-9999--5-5-5555--77777777--|
--9-9-9999--5-5-5555--0-0-0000-7-7-7777---9-9-9999--5-5-5555--77777777--|


Chorus x2
------------------------------------------------------------------------|
------------------------------------------------------------------------|
------------------------------------------------------------------------|
--00000000---55555555---99999999---55555555-----------------------------|
--00000000---55555555---99999999---55555555-----------------------------|
--00000000---55555555---99999999---55555555-----------------------------|


Intro
Verse
Chorus


Bridge x2
--------------------------------------------------------------------------|
--------------------------------------------------------------------------|
---------7-7-7----------9-/-11--9-/-7------------7-7-7-----------9-/-1111-|
--5-5-5--x-x-x--7--77---x---x---x---x-----5-5-5--x-x-x--7--77----x---x-x--|
--5-5-5--5-5-5--7--77---7-/-9---7-/-5-----5-5-5--5-5-5--7--77----7-/-9-9--|
--5-5-5---------7--77---------------------5-5-5---------7--77-------------|


------------------------------------------------------------------------|
------------------------------------------------------------------------|
------------------------------------------------------------------------|
--9----------------5--------------0---------------7---------------------|
--9----------------5--------------0---------------7---------------------|
--9----------------5--------------0---------------7---------------------|


------------------------------------------------------------------------|
------------------------------------------------------------------------|
------------------------------------------------------------------------|
--9----------------5--------------7-------------------------------------|
--9----------------5--------------7-------------------------------------|
--9----------------5--------------7-------------------------------------|


Prechorus x2
------------------------------------------------------------------------|
------------------------------------------------------------------------|
------------------------------------------------------------------------|
--9-9-9999--5-5-5555--0-0-0000-7-7-7777---9-9-9999--5-5-5555--77777777--|
--9-9-9999--5-5-5555--0-0-0000-7-7-7777---9-9-9999--5-5-5555--77777777--|
--9-9-9999--5-5-5555--0-0-0000-7-7-7777---9-9-9999--5-5-5555--77777777--|


Lyrics:

I don't see any other way
for you to get out of this mess and
this town is a loaded gun
with its sights on you
and you can't get out of here


Take this anyway you want to
but don't expect me to be there when you crash and burn
I've got a closet full of demons
and you're just another waiting to break free

This is the last time I kiss this city goodbye
it's the first time I get on with my life


I don't see any other way
for you to get out of this mess and
this town is a loaded gun
with its sights on you
and you can't get out of here


I knew who I was this morning
but that's changed so many times since then
These are the nights we will remember
and I'll hold onto that till the day I die

This is the last time I kiss this city goodbye
it's the first time I get on with my life, fuck!


I don't see any other way
for you to get out of this mess and
this town is a loaded gun
with its sights on you
and you can't get out of here

I don't see any other way
for you to get out of this mess and
this town is a loaded gun
with its sights on you
and you can't get out of here


This is the last time I kiss this city goodbye
it's the first time I get on with my

This is the last time I kiss this city goodbye
it's the first time I get on with my

This is the last time I kiss this city goodbye
it's the first time I get on with my life
Добавлено: 16.09.2015
Другие материалы по этой песне:
  • Аккорды и текст

Страница создана 16.09.2015
http://primanota.ru/misc-unsigned-bands/calling-all-captains-i-swear-this-is-last-time-chords.htm
Привет, Гость.
Предлагаем пройти революционный курс по гитаре.
Подарок от PrimaNota.Ru, забирай!