PrimaNota.ru - самый крупный в мире бесплатный архив песенных текстов, аккордов, табулатур и нот


Misc Unsigned Bands - Contrafuzz - Denial - таба

Регистрация Запомнить меня
Войти через:  Facebook Google Twitter Vk Yandex Mail.ru

Misc Unsigned Bands - Contrafuzz - Denial - таба

Печатать
Просмотров: 27
-------------------------------------------------------------------------------
                             Denial - Contrafuzz
-------------------------------------------------------------------------------
Tabbed by: Christian
E-mail: gubugga97@gmail.com

Tuning: standard

Intro
e|-7/--10--12----------------------------------------------------------------|
B|-8/--11--12----------------------------------------------------------------|
G|-7/--10--11----------------------------------------------------------------|
D|---------------------------------------------------------------------------|
A|---------------------------------------------------------------------------|
E|---------------------------------------------------------------------------|

Verse
e|---------------------------------------------------------------------------|
B|---------------------------------------------------------------------------|
G|-5-x-------7-7-x-------5-5-x-----------------------------------------------|
D|-5-x-7-7-x-7-7-x-5-5-x-5-5-x-7-7-x-5/-7-7-7-7-7-7-7-7----------------------|
A|-3-x-7-7-x-5-5-x-5-5-x-3-3-x-7-7-x-5/-7-7-7-7-7-7-7-7----------------------|
E|-----5-5-x-------3-3-x-------5-5-x-3/-5-5-5-5-5-5-5-5----------------------|

Chorus
e|---------------------------------------------------------------------------|
B|---------------------------------------------------------------------------|
G|-------9-x-x-------7-x-x-------9-x-x-------7-x-x-------7-x-x-------7-x-x---|
D|-7-x-x-9-x-x-7-x-x-7-x-x-7-x-x-9-x-x-7-x-x-7-x-x-7-x-x-7-x-x-7-x-x-7-x-x---|
A|-7-x-x-7-x-x-7-x-x-5-x-x-7-x-x-7-x-x-7-x-x-5-x-x-7-x-x-9-x-x-7-x-x-5-x-x---|
E|-5-x-x-------5-x-x-------5-x-x-------5-x-x-------5-x-x-------5-x-x---------|

e|---------------------------------------------------------------------------|
B|---------------------------------------------------------------------------|
G|-------7-x-x-------7-x-x---------------------------------------------------|
D|-7-x-x-7-x-x-7-x-x-7-x-x---------------------------------------------------|
A|-7-x-x-9-x-x-7-x-x-5-x-x---------------------------------------------------|
E|-5-x-x-------5-x-x---------------------------------------------------------|

Solo
e|---7-----------------------------7-----------------------------------------|
B|-9---9-7---7-------------------9---9-7---7-------------9~-7----------------|
G|---------9---9-7-6-7-8-9---------------9---9-7-6-7-8-9---------------------|
D|-------------------------7-7-7---------------------------------------------|
A|---------------------------------------------------------------------------|
E|---------------------------------------------------------------------------|

e|---7-----------------------------7---------------------7/9~/7--------------|
B|-9---9-7---7-------------------9---9-7---7---------------------------------|
G|---------9---9-7-6-7-8-9---------------9---9-7-6-7-8-9---------------------|
D|-------------------------7-7-7---------------------------------------------|
A|---------------------------------------------------------------------------|
E|---------------------------------------------------------------------------|



************************************

| /   slide up
| \   slide down
| h   hammer-on
| p   pull-off
| ~   vibrato
| +   harmonic
| x   Mute note
| b   Bend
| pb  Pre-bend
| br  Bend release
| pbr Pre-bend release
| brb Bend release bend

************************************
Добавлено: 17.10.2015
Другие материалы по этой песне:
  • Аккорды и текст

Страница создана 17.10.2015
http://primanota.ru/misc-unsigned-bands/contrafuzz-denial-chords.htm
Привет, Гость.
Предлагаем пройти революционный курс по гитаре.
Подарок от PrimaNota.Ru, забирай!