PrimaNota.ru - самый крупный в мире бесплатный архив песенных текстов, аккордов, табулатур и нот


Misc Unsigned Bands - Cape Cub - Swim - таба

Регистрация Запомнить меня
Войти через:  Facebook Google Twitter Vk Yandex Mail.ru

Misc Unsigned Bands - Cape Cub - Swim - таба

Печатать
Просмотров: 257
CAPE CUB - SWIM

TRANSCRIBED BY LIAM DUNLAP :-)
FIRST TAB!
MESSAGE ME @ DUNLAPLIAM@GMAIL.COM FOR REVISIONS!

VERSE
ENDING 1
VERSE
ENDING 2
CHORUS
VERSE
ENDING 1
VERSE
ENDING 2
CHORUS
INTERLUDE
CHORUS
VERSE
ENDING 3

VERSE
e|----------------------------------------------------------------------------------|
B|---6---5-----------------6---5h6p5------------------------------------------------|
G|------------5---4-----------------5-----5---4-------------------------------------|
D|--7---5-5---------------7---5--------5h7------------------------------------------|
A|-5---3-----7---5-5-----5---3---------------5-5------------------------------------|
E|----------5---3---------------------5-----3---------------------------------------|

ENDING 1
e|----------------------------------------------------------------------------------|
B|----------------------------------------------------------------------------------|
G|---4----4-------------------------------------------------------------------------|
D|----------------------------------------------------------------------------------|
A|--5-5--5-5------------------------------------------------------------------------|
E|-3----3---------------------------------------------------------------------------|

ENDING 2
e|----------------------------------------------------------------------------------|
B|------------------------6---5h6p5-------------------------------------------------|
G|---2-----5----4----4-------------5-----5---4--------------------------------------|
D|------5h7-5------------7---5--------5h7-------------------------------------------|
A|--3----------5-5--5-5-5---3---------------5-5-------------------------------------|
E|-1---5------3----3-----------------5-----3----------------------------------------|

CHORUS
e|----------------------------------------------------------------------------------|
B|----------------------------5--------------------5--------------------------------|
G|---4----4----4-----5----2--------4------5----2------------------------------------|
D|----------------5h7-7------5-5-------5h7-7------5-5-4-4-4-4-4-4-3?----------------|
A|--5-5--5-5--5----------3--3-----5-----------3--3----5-5-5-5-5-5-4?----------------|
E|-3----3----3--5-------1--------3--5--------1--------3-3-3-3-3-3-2?----------------|

INTERLUDE
e|----------------------------------------------------------------------------------|
B|----------5-----------5-----------------------------------------------------------|
G|-2--5--4-----2--5--4--------------------------------------------------------------|
D|----------5-----------5--4-4------------------------------------------------------|
A|-3--7--5--3--3--7--5--3--5-5-strum------------------------------------------------|
E|-1--5--3-----1--5--3-----3-3------------------------------------------------------|

ENDING 3
e|----------------------------------------------------------------------------------|
B|----------------------------------------------------------------------------------|
G|---4----4----4----4---5-----------------------------------------------------------|
D|----------------------------------------------------------------------------------|
A|--5-5--5-5--5-5--5-5--7-ring-out--------------------------------------------------|
E|-3----3----3----3-----5-----------------------------------------------------------|



Добавлено: 17.10.2015
Другие материалы по этой песне:
  • Аккорды и текст

Страница создана 17.10.2015
http://primanota.ru/misc-unsigned-bands/cape-cub-swim-chords.htm
Привет, Гость.
Предлагаем пройти революционный курс по гитаре.
Подарок от PrimaNota.Ru, забирай!