PrimaNota.ru - самый крупный в мире бесплатный архив песенных текстов, аккордов, табулатур и нот


Misc Unsigned Bands - Chicfunkchic - Jurassic Park - таба

Регистрация Запомнить меня
Войти через:  Facebook Google Twitter Vk Yandex Mail.ru

Misc Unsigned Bands - Chicfunkchic - Jurassic Park - таба

Печатать
Просмотров: 32
-------------------------------------------------------------------------------
                Jurassic Park (Fingerstyle) - ChicFunkChic
-------------------------------------------------------------------------------
Tabbed by: ChicFunkChic
E-mail:

Tuning: E A D G B E

e|-7-----7---7----7--7--7--------7-----7----------------------------------------|
B|---11----7---11---------11-10----11-------------------------------------------|
G|-8-----8---9----8--8-------9---8-----8----------------------------------------|
D|---------------------------9--------------------------------------------------|
A|-9-----9---9----9--9-------9---9-----9----------------------------------------|
E|-7-----7---7----7--7--7--------7-----7----------------------------------------|


My own fingerstyle arrangement of Jurassic Park

Copyright ChicFunkChic

Please Rate

Do Not Distribute My Tab anywhere 

Personal Use Only

P.S : I will be starting a finger style website selling my tabs this is not the whole tab just the main 
chorus
Добавлено: 17.10.2015
Другие материалы по этой песне:
  • Аккорды и текст

Страница создана 17.10.2015
http://primanota.ru/misc-unsigned-bands/chicfunkchic-jurassic-park-chords.htm
Привет, Гость.
Предлагаем пройти революционный курс по гитаре.
Подарок от PrimaNota.Ru, забирай!