PrimaNota.ru - самый крупный в мире бесплатный архив песенных текстов, аккордов, табулатур и нот


Misc Unsigned Bands - Calling All Captains - Our Calling - таба, видео

Регистрация Запомнить меня
Войти через:  Facebook Google Twitter Vk Yandex Mail.ru

Misc Unsigned Bands - Calling All Captains - Our Calling - таба, видео

Печатать
Просмотров: 97
Уроки эстрадного вокала в Санкт-Петербурге
Intro/Chorus x2
-------------------------------------------------------------------------|
-------------------------------------------------------------------------|
-7-7-7-7-7-7-7-7--9-9-9-9--9-9-1111-------------------12121212--1111-9-9-|
-7-7-7-7-7-7-7-7--x-x-x-x--x-x-x-x---7-7-7-7-7-7-7-7--x-x-x-x---x-x-x-x--|
-5-5-5-5-5-5-5-5--7-7-7-7--7-7-9-9---7-7-7-7-7-7-7-7--10101010--9-9-7-7--|
-------------------------------------7-7-7-7-7-7-7-7---------------------|


----------------------------------------------------------------------|
----------------------------------------------------------------------|
----------------------------------------------------------------------|
-5-5-5-5-55---4-4-4-4-44---5-5-5-5-55---7-7-7-7-----------------------|
-5-5-5-5-55---4-4-4-4-44---5-5-5-5-55---7-7-7-7-----------------------|
-5-5-5-5-55---4-4-4-4-44---5-5-5-5-55---7-7-7-7-----------------------|


Verse: Guitar 1 x2
----------------------------------------------------------------------|
----------------------------------------------------------------------|
----------------------------------------------------------------------|
----------------------------------------------------------------------|
--5-5-5-5-5-5-5-5-----------------------------------------------------|
-------------------7-7-7-7-7-7-7-7--9-9-9-9-9-9-9-9--5-5-5-5-5-5-5----|

Verse: Guitar 2
----------------------------------------------------------------------|
----------------------------------------------------------------------|
--7---7---7---7---7---7---9---9---6---6---6---6---7---7---6---6-------|
----7---7---7---7---7---7---7---7---7---7---7---7---7---7---7---7-----|
----------------------------------------------------------------------|
----------------------------------------------------------------------|


----------------------------------------------------------------------|
----------------------------------------------------------------------|
--7---7---7---7---7---7---9---9---7---7---7---7---7---7---6---6-----7-|
----7---7---7---7---7---7---7---7---7---7---7---7---7---7---7---7---7-|
----------------------------------------------------------------------|
----------------------------------------------------------------------|


Prechorus
----------------------------------------------------------------------|
----------------------------------------------------------------------|
----------------------------------------------------------------------|
--2~------------------5~----------------------------------------------|
--2~------------------5~----------------------------------------------|
--2~------------------5~----------------------------------------------|


Chorus x2
-------------------------------------------------------------------------|
-------------------------------------------------------------------------|
-7-7-7-7-7-7-7-7--9-9-9-9--9-9-1111-------------------12121212--1111-9-9-|
-7-7-7-7-7-7-7-7--x-x-x-x--x-x-x-x---7-7-7-7-7-7-7-7--x-x-x-x---x-x-x-x--|
-5-5-5-5-5-5-5-5--7-7-7-7--7-7-9-9---7-7-7-7-7-7-7-7--10101010--9-9-7-7--|
-------------------------------------7-7-7-7-7-7-7-7---------------------|


----------------------------------------------------------------------|
----------------------------------------------------------------------|
----------------------------------------------------------------------|
-5-5-5-5-55---4-4-4-4-44---5-5-5-5-55---7-7-7-7-----------------------|
-5-5-5-5-55---4-4-4-4-44---5-5-5-5-55---7-7-7-7-----------------------|
-5-5-5-5-55---4-4-4-4-44---5-5-5-5-55---7-7-7-7-----------------------|

Post Chorus: Rhythm
-----------------------------------------------------------------------|
-----------------------------------------------------------------------|
-----------------------------------------------------------------------|
-----------------------------------------------------------------------|
---------------------------------------5-5-5-5-5-5-5-5-----------------|
-9-9-9-9-9-9-9-9-9--5-5-5-5-5-5-5-5-5------------------7-7-7-7-7-7-7-7-|

Post Chorus: Guitar 2
----------------------------------------------------------------------|
----------------------------------------------------------------------|
--7---6---4---6-------14-----11--14~----------------------------------|
--x---x---x---x-------x------x---x------------------------------------|
--5---4---2---4-------12-----9---12~----------------------------------|
----------------------------------------------------------------------|

Verse 2: Guitar/Bass
----------------------------------------------------------------------|
----------------------------------------------------------------------|
----------------------------------------------------------------------|
--7-7-7-7-7-7-7-7-----------------------------------------------------|
--5-5-5-5-5-5-5-5--9-9-9-9-9-9-9-9--111111111111111--7-7-7-7-7-7-7----|
-------------------7-7-7-7-7-7-7-7--9-9-9-9-9-9-9-9--5-5-5-5-5-5-5----|


Verse 2: Guitar 2
----------------------------------------------------------------------|
----------------------------------------------------------------------|
--7---7---7---7---7---7---9---9---6---6---6---6---7---7---6---6-------|
----7---7---7---7---7---7---7---7---7---7---7---7---7---7---7---7-----|
----------------------------------------------------------------------|
----------------------------------------------------------------------|


----------------------------------------------------------------------|
----------------------------------------------------------------------|
--7---7---7---7---7---7---9---9---7---7---7---7---7---7---6---6-----7-|
----7---7---7---7---7---7---7---7---7---7---7---7---7---7---7---7---7-|
----------------------------------------------------------------------|
----------------------------------------------------------------------|


Prechorus
----------------------------------------------------------------------|
----------------------------------------------------------------------|
----------------------------------------------------------------------|
--2~------------------5~----------------------------------------------|
--2~------------------5~----------------------------------------------|
--2~------------------5~----------------------------------------------|

Chorus x2
-------------------------------------------------------------------------|
-------------------------------------------------------------------------|
-7-7-7-7-7-7-7-7--9-9-9-9--9-9-1111-------------------12121212--1111-9-9-|
-7-7-7-7-7-7-7-7--x-x-x-x--x-x-x-x---7-7-7-7-7-7-7-7--x-x-x-x---x-x-x-x--|
-5-5-5-5-5-5-5-5--7-7-7-7--7-7-9-9---7-7-7-7-7-7-7-7--10101010--9-9-7-7--|
-------------------------------------7-7-7-7-7-7-7-7---------------------|


----------------------------------------------------------------------|
----------------------------------------------------------------------|
----------------------------------------------------------------------|
-5-5-5-5-55---4-4-4-4-44---5-5-5-5-55---7-7-7-7-----------------------|
-5-5-5-5-55---4-4-4-4-44---5-5-5-5-55---7-7-7-7-----------------------|
-5-5-5-5-55---4-4-4-4-44---5-5-5-5-55---7-7-7-7-----------------------|


Bridge

----------------------------------------------------------------------|
----------------------------------------------------------------------|
---7~----------------------------------------------7-7----------------|
---7~----------------------------------------------7-7----------------|
---5~----------------------------------------------5-5----------------|
----------------------------------------------------------------------|


----------------------------------------------------------------------|
----------------------------------------------------------------------|
----------------------------------------------------------------------|
----------------------------------------------------------------------|
-5-5-5-5-5-5-5-5-5-5-5-5-5-5------------------------------------------|
-----------------------------7-7-9-9-9-9-9-9-9-9-9-5-5-5-5-5-5-5-5----|


----------------------------------------------------------------------|
----------------------------------------------------------------------|
----------------------------------------------------------------------|
-5-5-5-5-5-5-5-5-5-5-5-5-5-5------------------------------------------|
-5-5-5-5-5-5-5-5-5-5-5-5-5-5-7-7-9-9-9-9-9-9-9-9-9-5-5-5-5-5-5-5-5----|
-----------------------------7-7-9-9-9-9-9-9-9-9-9-5-5-5-5-5-5-5-5----|


Prechorus
----------------------------------------------------------------------|
----------------------------------------------------------------------|
----------------------------------------------------------------------|
--2~------------------5~----------------------------------------------|
--2~------------------5~----------------------------------------------|
--2~------------------5~----------------------------------------------|

Chorus x2
-------------------------------------------------------------------------|
-------------------------------------------------------------------------|
-7-7-7-7-7-7-7-7--9-9-9-9--9-9-1111-------------------12121212--1111-9-9-|
-7-7-7-7-7-7-7-7--x-x-x-x--x-x-x-x---7-7-7-7-7-7-7-7--x-x-x-x---x-x-x-x--|
-5-5-5-5-5-5-5-5--7-7-7-7--7-7-9-9---7-7-7-7-7-7-7-7--10101010--9-9-7-7--|
-------------------------------------7-7-7-7-7-7-7-7---------------------|


----------------------------------------------------------------------|
----------------------------------------------------------------------|
----------------------------------------------------------------------|
-5-5-5-5-55---4-4-4-4-44---5-5-5-5-55---7-7-7-7-----------------------|
-5-5-5-5-55---4-4-4-4-44---5-5-5-5-55---7-7-7-7-----------------------|
-5-5-5-5-55---4-4-4-4-44---5-5-5-5-55---7-7-7-7-----------------------|


End on
--------|
--------|
--7-----|
--7-----|
--0-----|
--0-----|

Lyrics:

I have fond memories of
climbing schools at night
to get high

back when we were kids at the start
ok maybe not quite
but we were kids at heart

and we always knew

there would be a place where we
could make this feeling last
and last

not stuck in your 9 to 5 routine
another cog in the machine

yeah we always knew


This is our calling in life
this is what we dreamt about at night
when we were just kids
with stars in our eyes.
Now we're all grown up
we get by but it's not enough
and we never lost our stars


It's be come clear, the difference
between there and here

we're not wasting anymore time
on girls that never loved us,
or a family that'll never trust us,
time to leave it all behind


This is our calling in life
this is what we dreamt about at night
when we were just kids
with stars in our eyes.
Now we're all grown up
we get by but it's not enough
and we never lost our stars


We all feel a little fucked up sometimes
we just need a reason
to feel alright

We all feel a little fucked up sometimes
we just need a reason
to feel alright
maybe you could be mine

This is our calling in life
this is what we dreamt about at night
when we were just kids
with stars in our eyes.
Now we're all grown up
we get by but it's not enough
and we never lost our stars

(Now we're all grown up
we get by but it's not enough
and we never lost our stars)
Добавлено: 17.09.2015
Другие материалы по этой песне:
  • Аккорды и текст

Страница создана 17.09.2015
http://primanota.ru/misc-unsigned-bands/calling-all-captains-our-calling-chords.htm
Привет, Гость.
Предлагаем пройти революционный курс по гитаре.
Подарок от PrimaNota.Ru, забирай!