PrimaNota.ru - самый крупный в мире бесплатный архив песенных текстов, аккордов, табулатур и нот


Misc Unsigned Bands - Contrabution - таба, видео

Регистрация Запомнить меня
Войти через:  Facebook Google Twitter Vk Yandex Mail.ru

Misc Unsigned Bands - Contrabution - таба, видео

Печатать
Просмотров: 39
-------------------------------------------------------------------------------
                             Contrabution - Rigamortis
-------------------------------------------------------------------------------
Tabbed by:E.GAMBOA
E-mail:

Tuning:D A D G B E

e|---------------------------------------------------------------------------|
B|---------------------------------------------------------------------------|
G|---------------------------------------------------------------------------|
D|-----(BASS SOLO)-------------------0---------------------------------------|
A|-----------------------------------0---------------------------------------|
D|-----------------------------------0---------------------------------------|

e|--------------------------------------------------------------------------------------|
B|--------------------------------------------------------------------------------------|
G|--------------------------------------------------------------------------------------|
D|--------------------------------------------------------------------------------------|
A|---------3-----------------5-----6---------3-----------------5-----0-(REPEAT X2)------|
D|-0-0-0-0---0-0-0-0-0-0-0-0---0-0---0-0-0-0---0-0-0-0-0-0-0-0---0-0--------------------|

e|---------------------------------------------------------------------------|
B|---------------------------------------------------------------------------|
G|---------------------------------------------------------------------------|
D|-------------------------------1-0-----------------------------------------|
A|-------1-0-----------1-3-------1-0-------3-1---------(REPEAT X2)-----------|
D|-0-0-0-----0-0-0-1-3-----0-0-0-1-0---0-0-0-----3-1-------------------------|

e|---------------------------------------------------------------------------|
B|---------------------------------------------------------------------------|
G|---------------------------------------------------------------------------|
D|---------------------------------------------------------------------------|
A|-----3-----5-----6-----5-----3-----3-----5-----6-----5-----0-(REPEAT X2)---|
D|-0-0---0-0---0-0---0-0---0-0---0-0---0-0---0-9---0-0---0-0-----------------|

e|---------------------------------------------------------------------------|
B|---------------------------------------------------------------------------|
G|---------------------------------------------------------------------------|
D|-------------------------------1-0-----------------------------------------|
A|-------1-0-----------1-3-------1-0-------3-1----------(REPEAT X2)----------|
D|-0-0-0-----0-0-0-1-3-----0-0-0-1-0-0-0-0-----3-1---------------------------|

e|-------------------------------------------------------------------------------------|
B|-------------------------------------------------------------------------------------|
G|-------------------------------------------------------------------------------------|
D|-------------------------------------------------------------------------------------|
A|---------3-----------------5-----6---------3-----------------5-----0----(REPEAT X2)--|
D|-0-0-0-0---0-0-0-0-0-0-0-0---0-0---0-0-0-0---0-0-0-0-0-0-0-0---0-0-------------------|

e|---------------------------------------------------------------------------|
B|---------------------------------------------------------------------------|
G|---------------------------------------------------------------------------|
D|------------------1-0------------------------------------------------------|
A|-------1-0--------1-0--------3-1----------(REPEAT X2)----------------------|
D|-0-0-0-----0-0-0--1-0-0-0-0------3-1---------------------------------------|

e|---------------------------------------------------------------------------|
B|---------------------------------------------------------------------------|
G|---------------------------------------------------------------------------|
D|-5-----5-----5---5-----5-------5-----5-----5-----------5-7-----------------|
A|-5-----5-----5---5-----5-------5-----5-----5-------5-7---------(REPEAT X2)-|
D|-5-0-0-5-0-0-5-0-5-0-0-5-0-0-0-5-0-0-5-0-0-5-0-0-0-------------------------|

e|--------------------------------------------------------------------------------------|
B|--------------------------------------------------(REPEAT-X2)-------------------------|
G|---------------------------------\--------------------------------------------/-------|
D|-0-0-0-0-0-2-2-2-2-2-3-3-3-3-3-2---------13---------8-9---------5---------2-3---------|
A|-0-0-0-0-0-2-2-2-2-2-3-3-3-3-3-2---------13---------8-9---------5---------2-3---------|
D|-0-0-0-0-0-2-2-2-2-2-3-3-3-3-3-2-0-0-0-0-13-0-0-0-0-8-9-0-0-0-0-5-0-0-0-0-2-3---------|

e|---------------------------------------------------------------------|
B|---------------------------------------------------------------------|
G|---------------------------------------------------------------------|
D|-0-------0-------0---------------------------------------------------|
A|-0-------0-------0-----------3---------------5-----6-----------------|
D|-0-0-0-0-0-0-0-0-0---0-0-0-0---0-0-0-0-0-0-0---0-0-------------------|



************************************

| /   slide up
| \   slide down
| h   hammer-on
| p   pull-off
| ~   vibrato
| +   harmonic
| x   Mute note
| b   Bend
| pb  Pre-bend
| br  Bend release
| pbr Pre-bend release
| brb Bend release bend

************************************
Добавлено: 17.10.2015
Другие материалы по этой песне:
  • Аккорды и текст

Страница создана 17.10.2015
http://primanota.ru/misc-unsigned-bands/contrabution-chords.htm
Привет, Гость.
Предлагаем пройти революционный курс по гитаре.
Подарок от PrimaNota.Ru, забирай!