PrimaNota.ru - самый крупный в мире бесплатный архив песенных текстов, аккордов, табулатур и нот


Misc Unsigned Bands - C Austin Milles - In The Garden - таба

Регистрация Запомнить меня
Войти через:  Facebook Google Twitter Vk Yandex Mail.ru

Misc Unsigned Bands - C Austin Milles - In The Garden - таба

Печатать
Просмотров: 89
-------------------------------------------------------------------------------
                             in the garden - C. austin miles
-------------------------------------------------------------------------------
Tabbed by:
E-mail:
key of G
Tuning:E-A-D-G-B-e

e|---------------------------------------------------------------------------|
B|--------------------------0------------------------------------------------|
G|-------------------0----2-----2----0---0---0---2----0------0---------0-----|
D|-0---0----------0--0----0-0---0----3---2---2---2----2--2------0--3---------|
A|-2---2---2--3---2--------------------------------------3---2--2--3---3-----|
E|---------3--5--------------------------------------------------------------|
   i come to the garden alone while the dew is still on the roses and the  
e|---------------------------------------------------------------------------|
B|-----------------------------0---0-------0---------------------------------|
G|---2---2---------------0--2----------2------2----0---0-2-------------------|
D|-----------3----2--4---0--0--0---0-----------------4---0-------------------|
A|---3---3---3----3--5-----------------4---3--3----3-5-----------------------|
E|---------------------------------------------------------------------------|
   voice i hear falling on my ear the son of God discloses 
e|---------------------------------------------------------------------------|
B|-------0-------------------------------------------------1----1-1--0------0|
G|-----------2---0-----0---0--------------------------------------------3----|
D|-------0--------------------3---2---3-----3---3--0---0---2----2-2--0------0|
A|-----------3---2-----2---2--2---2---3-----3---3--3---3----------------4----|
E|---------------------------------------------------------------------------|
chorus: and He walks with me and he talks with me and he tells me i am his own 
e|---------------------------------------------------------------------------|
B|----------0---0------------------------------------------------------------|
G|--0---2-----------2----2-----0--0---0------------0--0-----2---0------------|
D|----------0---0---1----0--4--2--3---2-----2---0---------3------------------|
A|--2---3-------------------5---------------3---2--2--2---3-3---2------------|
E|---------------------------------------------------------------------------|
   and the joy we share as we tarry there none other has ever known



************************************

| /   slide up
| \   slide down
| h   hammer-on
| p   pull-off
| ~   vibrato
| +   harmonic
| x   Mute note
| b   Bend
| pb  Pre-bend
| br  Bend release
| pbr Pre-bend release
| brb Bend release bend

************************************
Добавлено: 16.10.2015
Другие материалы по этой песне:
  • Аккорды и текст

Страница создана 16.10.2015
http://primanota.ru/misc-unsigned-bands/c-austin-milles-in-garden-chords.htm
Привет, Гость.
Предлагаем пройти революционный курс по гитаре.
Подарок от PrimaNota.Ru, забирай!