PrimaNota.ru - самый крупный в мире бесплатный архив песенных текстов, аккордов, табулатур и нот


Misc Unsigned Bands - Brian2ngo - Malay Lah - таба

Регистрация Запомнить меня
Войти через:  Facebook Google Twitter Vk Yandex Mail.ru

Misc Unsigned Bands - Brian2ngo - Malay Lah - таба

Печатать
Просмотров: 63
-------------------------------------------------------------------------------
                             Brian2Ngo - Malay Lay
-------------------------------------------------------------------------------
Tabbed by: The Big K
Tuning: Drop D

Verse Riff 1
e|------------------------------------------------------------------------------------|
B|------------------------------------------------------------------------------------|
G|------------------------------------------------------------------------------------|
D|------------------------------------------------------------------------------------|
A|-0-0-0-3-5-3-0----------------------------------------------------------------------|
D|-0-0-0-3-5-3-0----------------------------------------------------------------------|

Solo 1
e|-12-12-10-12-10-12-13-12-10-13-12-10------------------------------------------------|
B|-------------------------------------13-12-10-12-12b--------------------------------|
G|-(You need to be moderately sloppy here)--------------------------------------------|
D|------------------------------------------------------------------------------------|
A|------------------------------------------------------------------------------------|
D|------------------------------------------------------------------------------------|

Verse Riff 2
e|------------------------------------------------------------------------------------|
B|------------------------------------------------------------------------------------|
G|------------------------------------------------------------------------------------|
D|------------------------------------------------------------------------------------|
A|-0-0-----0-0---0--------------------------------------------------------------------|
D|-0-0-0-0-0-0-0-0--------------------------------------------------------------------|

Solo 2
e|(Hit guitar around 18th fret)-12-12-10-12-10-12-13-12-10-13-12-10-------------------|
B|------------------------(You should just barely play these notes)-13-12-10-12-12b---|
G|------------------------------------------------------------------------------------|
D|------------------------------------------------------------------------------------|
A|------------------------------------------------------------------------------------|
D|------------------------------------------------------------------------------------|




************************************

| /   slide up
| \   slide down
| h   hammer-on
| p   pull-off
| ~   vibrato
| +   harmonic
| x   Mute note
| b   Bend
| pb  Pre-bend
| br  Bend release
| pbr Pre-bend release
| brb Bend release bend

************************************
Добавлено: 16.10.2015
Другие материалы по этой песне:
  • Аккорды и текст

Страница создана 16.10.2015
http://primanota.ru/misc-unsigned-bands/brian2ngo-malay-lah-chords.htm
Привет, Гость.
Предлагаем пройти революционный курс по гитаре.
Подарок от PrimaNota.Ru, забирай!