PrimaNota.ru - самый крупный в мире бесплатный архив песенных текстов, аккордов, табулатур и нот


Misc Unsigned Bands - Bobgmbh - Bad Apple - таба

Регистрация Запомнить меня
Войти через:  Facebook Google Twitter Vk Yandex Mail.ru

Misc Unsigned Bands - Bobgmbh - Bad Apple - таба

Печатать
Просмотров: 82
-------------------------------------------------------------------------------
                             SONG NAME - Band Name
-------------------------------------------------------------------------------
Tabbed by: DJ and the crew
E-mail: 16johdak@manistee.org

Tuning: standard

This is just the main melodic bits. If you know more parts email me and I'll add them.

I don't know the original artist, I just learned this from listening to BobGMBH's videos.
This is my first time writing tabs so if you have suggestions for me to get better, shoot me 
an email.

If I left 2- in between notes that indicates a phrase separation.

Here is a link to the synthenasia video video I used to learn it.
https://www.youtube.com/watch?v=P9dnrMi-Q3w 

e|------------------------------------------------------------|
B|----------3-1-----------------------------------------------|
G|------0-2-----2---2-0------------0-2--0---0---0-2-0---------|
D|0-2-3-----------3-----3-2--0-2-3--------3---3-------3-2-----|
A|--------------------------------------------------------3---|
E|------------------------------------------------------------|

e|------------------------------------------------------------|
B|----------3-1-----------------------------------------------|
G|------0-2-----2---2-0------------0-2--0---0---0-2-0---------|
D|0-2-3-----------3-----3-2--0-2-3--------3---3-------3-2---0-|
A|--------------------------------------------------------3---|
E|------------------------------------------------------------|

                   Pause for effect

e|-----------------------------------------------------------|
B|1-1-1-3----------1-1-3-------------------------------------|
G|--------2-0-2--2-------2-0-2--0-2-0------------------0-2---|
D|------------------------------------3-2---0----0-2-3-----0-|
A|----------------------------------------3----3-------------|
E|-----------------------------------------------------------|

e|-----------------------------------------------------------|
B|1-1-1-3----------1-1-3-------------------------------------|
G|--------2-0-2--2-------2-0-2--0-2-0------------------0-2---|
D|------------------------------------3-2---0----0-2-3-----0-|
A|----------------------------------------3----3-------------|
E|-----------------------------------------------------------|

e|----------------------------------1-0----------------------|
B|1-1-1-3----------1-1-3--------1-3-----3-1------------------|
G|--------2-0-2--2-------2-0-2--------------2--0-2-0---------|
D|---------------------------------------------------3-2---0-|
A|-------------------------------------------------------3---|
E|-----------------------------------------------------------|
Добавлено: 16.10.2015
Другие материалы по этой песне:
  • Аккорды и текст

Страница создана 16.10.2015
http://primanota.ru/misc-unsigned-bands/bobgmbh-bad-apple-chords.htm
Привет, Гость.
Предлагаем пройти революционный курс по гитаре.
Подарок от PrimaNota.Ru, забирай!