PrimaNota.ru - самый крупный в мире бесплатный архив песенных текстов, аккордов, табулатур и нот


Misc Unsigned Bands - Breathing Ash - Dont Try - таба

Регистрация Запомнить меня
Войти через:  Facebook Google Twitter Vk Yandex Mail.ru

Misc Unsigned Bands - Breathing Ash - Dont Try - таба

Печатать
Просмотров: 80
-------------------------------------------------------------------------------
                             Don't try - Breathing Ash
-------------------------------------------------------------------------------
Tabbed by:Breathing Ash

Tuning:STANDARD


   G               F              C
e|---------------------------------------------------------------------------|
B|---------------------------------------------------------------------------|
G|-------------------2---2---2---2-------------------------------------------|
D|-----------------3---3---3---3----2---2---2---2---2---2---2---2------------|
A|---2---2---2---2----------------3---3---3---3---3---3---3---3--------------|
E|-3---3---3---3-------------------------------------------------------------|

Добавлено: 16.10.2015
Другие материалы по этой песне:
  • Аккорды и текст

Страница создана 16.10.2015
http://primanota.ru/misc-unsigned-bands/breathing-ash-dont-try-chords.htm
Привет, Гость.
Предлагаем пройти революционный курс по гитаре.
Подарок от PrimaNota.Ru, забирай!