PrimaNota.ru - самый крупный в мире бесплатный архив песенных текстов, аккордов, табулатур и нот


Misc Unsigned Bands - Attack On Nova - Egotistic Dreamer - таба, видео

Регистрация Запомнить меня
Войти через:  Facebook Google Twitter Vk Yandex Mail.ru

Misc Unsigned Bands - Attack On Nova - Egotistic Dreamer - таба, видео

Печатать
Просмотров: 62
Уроки эстрадного вокала в Санкт-Петербурге
Egotistic Dreamer
C# Standard tuning
Listen to song for rhythm and strumming patterns.


Intro: Guitar

C#|------------------------------------------|
G#|------------------------------------------|
E |----------------0-------------------------|
B |-----4--4---------2-----2---2-------4-0---|X2
F#|---2--2---0-2-4-------4---4---0-2-4-------|
C#|------------------------------------------|


C#|---------------------------------|
G#|---------------------------------|
E |---------------------------------|
B |---0---0---0---0---0---0---0---0-|X4
F#|-2---2---0---0-------------------|
C#|-----------------3---3---2---2---|


Verse A:
Medium hard tempo
Lyrics: Hoping to Break out of this Samsara;
        I waste no day. I waste no night.
    
C#|--------------------------------------------------------|
G#|--------------------------------------------------------|
E |--4---7-------7-6------4---7----------------------------|
B |--4-------5------------4-------5---7-5-4----------------|X3
F#|--2---5---5---5-4------2---5---5---7-5-4----------------|
C#|----------3--------------------3---5-3-2----------------|

Verse B Clean
Slower tempo
Lyrics: Hoping to break down these wounding beliefs, They hold me tight as I wade through the strife.
        Uncover the facts, That clarify the dream.
        In time I know we will. In time I know we can!!!!

C#|-------------------------------------|
G#|--3----3----3----5----3----3----2----|
E |--4----4----4----6----4----4----3----|
B |--4----5----4----7----4----5----4----|X1
F#|--2----5----2----7----2----5----4----|
C#|-------3---------5---------3----2----|


Chorus:
Fast Tempo
Lyrics: Desperate,Separate, Egotistic Dreamer

C#|-------------------|
G#|-------------------|
E |------------7----9-|
B |--4----7----5----7-|X2
F#|--2----5-----------|
C#|-------------------|

REPEAT FROM VERSE A

Middle:

C#|--2-----0-----2---------------|
G#|--3-----2-----3-----2-3-2-----|X2 with Stop/hang beat
E |--4-----3-----4-----2---------|X2 with Stops inbetween while guitar solos
B |--4-----4-----0-----2---------|X2 open strumming
F#|--2-----0-----------0---------|
C#|------------------------------|

REPEAT Verse A and End on G# minor power chord.
Добавлено: 19.07.2015
Другие материалы по этой песне:
  • Аккорды и текст

Страница создана 19.07.2015
http://primanota.ru/misc-unsigned-bands/attack-on-nova-egotistic-dreamer-chords.htm
Привет, Гость.
Предлагаем пройти революционный курс по гитаре.
Подарок от PrimaNota.Ru, забирай!