PrimaNota.ru - самый крупный в мире бесплатный архив песенных текстов, аккордов, табулатур и нот


Misc Unsigned Bands - Amnaeon - The Slagwerks - таба

Регистрация Запомнить меня
Войти через:  Facebook Google Twitter Vk Yandex Mail.ru

Misc Unsigned Bands - Amnaeon - The Slagwerks - таба

Печатать
Просмотров: 144
Уроки эстрадного вокала в Санкт-Петербурге
-------------------------------------------------------------------------------
                             amnaeon - The Slagwerks
-------------------------------------------------------------------------------
Tabbed by: Limefire13
e-mail: limefire15@gmail.com

Tuning: Drop D (DADGBe)

CHORUS: 

e|---------------------------------------------------------------------------|
B|---------------------------------------------3-1---------------------------|
G|---4--4--4--4--4-2-4-2-4-2-4-2-5--4--4-2-4-2-----4-2-4-2-------------------|  x3
D|---4--4--4--4------------------5--4----------------------4-----------------|
A|---2--2--2--2------------------3--2----------------------------------------|
D|---------------------------------------------------------------------------|

e|---------------------------------------------------------------------------|
B|---------------------------------------------3-1---------------------------|
G|---4--4--4--4---------------------4--4-2-4-2-----4-2-4-2-------------------|
D|---4--4--4--4---------------------4----------------------4-----------------|
A|---2--2--2--2---------------------2----------------------------------------|
D|---------------------------------------------------------------------------|

VERSE:

e|---------------------------------------------------------------------------|
B|---------------------------------------------------------------------------|
G|---4-4-4-4-4-4-4--------5--5-5-5-5/7---7-7-7-7-7-7-7-----------------------| x4
D|---4-4-4-4-4-4-4--------5--5-5-5-5/7---7-7-7-7-7-7-7-----------------------|
A|---2-2-2-2-2-2-2--------3--3-3-3-3/5---5-5-5-5-5-5-5-----------------------|
D|---------------------------------------------------------------------------|
     x x x x x x

e|---------------------------------------------------------------------------|
B|---------------------------------------------------------------------------|
G|---5-4-4-5-4-4-5-4-4-5-4-4-7-4-4-5-----------------------------------------| x2
D|------------------------------------000-000--------------------------------| (for second verse x4)
A|------------------------------------000-000--------------------------------|
D|------------------------------------000-000--------------------------------|

BRIDGE Pt1:

e|---------------------------------------------------------------------------|
B|---------------------------------------------------------------------------|
G|---4---4-4--4-4-4-4---4-4--4-4-4-4---4-4--4-4-4-4---4-4--4-4-4-------------|
D|---4---4-4--4-4-4-4---4-4--4-4-4-4---4-4--4-4-4-4---4-4--4-4-4-------------|
A|---2---2-2--2-2-2-2---2-2--2-2-2-2---2-2--2-2-2-2---2-2--2-2-2-------------|
D|---------------------------------------------------------------------------|
                    x   x x  x x x                x   x x  x x x

e|---------------------------------------------------------------------------|
B|---------------------------------------------------------------------------|
G|---2---2-2--2-2-2-2---2-2--2-2-2-6---6-6--6-6-6-6---6-6--6-6-6-------------|
D|---2---2-2--2-2-2-2---2-2--2-2-2-6---6-6--6-6-6-6---6-6--6-6-6-------------|
A|---0---0-0--0-0-0-0---0-0--0-0-0-4---4-4--4-4-4-4---4-4--4-4-4-------------|
D|---------------------------------------------------------------------------|
                    x   x x  x x x                x   x x  x x x


e|---------------------------------------------------------------------------|
B|---------------------------------------------------------------------------|
G|---4---4-4--4-4-4-4--------------4---4-4--4-4-4-4--------------------------|
D|---4---4-4--4-4-4-4--------------4---4-4--4-4-4-4--------------------------|
A|---2---2-2--2-2-2-2--------------2---2-2--2-2-2-2--------------------------|
D|---------------------------------------------------------------------------|

e|---------------------------------------------------------------------------|
B|---------------------------------------------------------------------------|
G|---2---2-2--2-2-2-2--------------6---6-6--6-6-6-6--------------------------| x3
D|---2---2-2--2-2-2-2--------------6---6-6--6-6-6-6--------------------------|
A|---0---0-0--0-0-0-0--------------4---4-4--4-4-4-4--------------------------|
D|---------------------------------------------------------------------------|

e|---------------------------------------------------------------------------|
B|---------------------------------------------------------------------------|
G|---4---4-4--4-4-4----------------4---4-4--4-4-4----------------------------|
D|---4---4-4--4-4-4----------------4---4-4--4-4-4----------------------------|
A|---2---2-2--2-2-2----------------2---2-2--2-2-2----------------------------|
D|---------------------------------------------------------------------------|

e|---------------------------------------------------------------------------|
B|---------------------------------------------------------------------------|
G|---2--2--2--2--2--2-6--6--6------------------------------------------------|
D|---2--2--2--2--2--2-6--6--6------------------------------------------------|
A|---0--0--0--0--0--0-4--4--4------------------------------------------------|
D|---------------------------------------------------------------------------|

BRIDGE Pt2:

e|---------------------------------------------------------------------------|
B|---------------------------------------------------------------------------|
G|---4--4-4-4-4-4-4-4-7--7-7-7-7-7-7-2--2-2-2-2-2-2-2--2-2-2-2-2-2-----------| x3
D|---4--4-4-4-4-4-4-4-7--7-7-7-7-7-7-2--2-2-2-2-2-2-2--2-2-2-2-2-2-----------|
A|---2--2-2-2-2-2-2-2-5--5-5-5-5-5-5-0--0-0-0-0-0-0-0--0-0-0-0-0-0-----------|
D|---------------------------------------------------------------------------|

e|---------------------------------------------------------------------------|
B|---------------------------------------------------------------------------|
G|---4--4-4-4-4-4-4-4-7--7-7-7-7-7-7-2--2--2---------------------------------|
D|---4--4-4-4-4-4-4-4-7--7-7-7-7-7-7-2--2--2---------------------------------|
A|---2--2-2-2-2-2-2-2-5--5-5-5-5-5-5-0--0--0---------------------------------|
D|---------------------------------------------------------------------------|

e|---------------------------------------------------------------------------|
B|---------------------------------------------------------------------------|
G|---4--4--4-7--7--7-2--2--2-2--2--2-----------------------------------------| x3
D|---4--4--4-7--7--7-2--2--2-2--2--2-----------------------------------------|
A|---2--2--2-5--5--5-0--0--0-0--0--0-----------------------------------------|
D|---------------------------------------------------------------------------|

e|---------------------------------------------------------------------------|
B|---------------------------------------------------------------------------|
G|---4-----7-----2-----------------------------------------------------------|
D|---4-----7-----2---------5-----------2-------------------------------------|
A|---2-----5-----0---------5-----------2-------------------------------------|
D|-------------------------5-----------2-------------------------------------|

BREAKDOWN Pt1:

e|---------------------------------------------------------------------------|
B|---------------------------------------------------------------------------|
G|---------------------------------------------------------------------------|
D|---------------------------------------------------------------------------|
A|---------------------------------------------------------------------------|
D|---------------------------------------------------------------------------|

BREAKDOWN Pt2:

e|---------------------------------------------------------------------------|
B|----15-15-15-10-10-15-15-15-12-12b13r12p9----------------------------------|
G|---------------------------------------------------------------------------| x2
D|---------------------------------------------------------------------------|
A|---------------------------------------------------------------------------|
D|---------------------------------------------------------------------------|

e|---------------------------------------------------------------------------|
B|----17-15-15-10-10-10-15-15-15-10-10---------------------------------------|
G|---------------------------------------------------------------------------|
D|---------------------------------------------------------------------------|
A|---------------------------------------------------------------------------|
D|---------------------------------------------------------------------------|

e|---------------------------------------------------------------------------|
B|----15-15-15-10-10-15-15-15-15---------------------------------------------|
G|-------------------------------10\\0---------------------------------------|
D|---------------------------------------------------------------------------|
A|---------------------------------------------------------------------------|
D|---------------------------------------------------------------------------|


OUTRO:

e|---------------------------------------------------------------------------|
B|-------------------------------------------3-1-----------------------------|
G|---4--4-2-4-2-4-2-4-2-4-2-4-2---4--4-2-4-2-----4-2-4-2---------------------| x4
D|-------------------------------------------------------4-------------------|
A|---------------------------------------------------------------------------|
D|---------------------------------------------------------------------------|

e|---------------------------------------------------------------------------|
B|---------------------------------------------------------------------------|
G|---4-----------------------------------------------------------------------|
D|---4-----------------------------------------------------------------------|
A|---2-----------------------------------------------------------------------|
D|---------------------------------------------------------------------------|





************************************

| /   slide up
| \   slide down
| h   hammer-on
| p   pull-off
| ~   vibrato
| +   harmonic
| x   Mute note
| b   Bend
| pb  Pre-bend
| br  Bend release
| pbr Pre-bend release
| brb Bend release bend

************************************
Добавлено: 16.05.2015
Другие материалы по этой песне:
  • Аккорды и текст

Страница создана 16.05.2015
http://primanota.ru/misc-unsigned-bands/amnaeon-slagwerks-chords.htm
Привет, Гость.
Предлагаем пройти революционный курс по гитаре.
Подарок от PrimaNota.Ru, забирай!