PrimaNota.ru - самый крупный в мире бесплатный архив песенных текстов, аккордов, табулатур и нот


Misc Unsigned Bands - Avenue Over - Traffic - таба, видео

Регистрация Запомнить меня
Войти через:  Facebook Google Twitter Vk Yandex Mail.ru

Misc Unsigned Bands - Avenue Over - Traffic - таба, видео

Печатать
Просмотров: 93
Key:
| /   slide up
| \   slide down
| h   hammer-on
| p   pull-off
| ~   vibrato

Standard Tuning (EADGBe)
Guitar 1 (Nisarg): Capo 6 (Distortion and Reverb)

Intro:
E------------------|
B------------------|
G-----0---------0--|
D------0---------0-|
A--0h2-------0h2---|
E-0-----3--0-----3-|

Verse (x4):
e-----------------------------------------------------------------------|
B-----0-------0-------0-------0--------0-------0--------0--------0------|
G--0---0-0-0---0-0-0---0-0-0---0-0--0---0-0-0---0-0--0---0-0--0---0-0-0-|
D---4-------4-------4-------4--------4-------4--------4--------4--------|
A-----------------2--2--2-2--2--2------------------/3--3--3-/3--3--3----|
E-3--3--3-3--3--3------------------0--0--0-0--0--0----------------------|

Pre-Chorus (x2):
e----------------------------------------------------------------|
B-----0-------0-------0-------0------0----------------0-------0--|
G--0---0-0-0---0---0---0-0-0---0--0---0-0-0----0---0---0-0-0---0-|
D---7-------7-------5-------5------7-------7--------5-------5----|
A-5--5--5-5--5--3-3--3-3--3--3---5--5--5-5--5-7-3-3--3-3--3--3---|
E----------------------------------------------------------------|

Chorus (x4):
e-------------5--------------------|
B-----0--------4-----0-------------|
G--0---0-0-0----0-0---0-0-0--------|
D---2-------4------0-------0-------|
A-2--2--2-5--5---------------0h2---|
E----------------3--3--3-3--3---/2-|

Bridge (x4):
e---------------------------------------------------------------|
B-----0-------0-------0-------0------0-------0-------0-------0--|
G--0---0-0-0---0---0---0-0-0---0--0---0-0-0---0---0---0-0-0---0-|
D---7-------7-------5-------5------0-------0-------4-------4----|
A-5--5--5-5--5--3-3--3-3--3--3-----------------2-2--2-2--2--2---|
E--------------------------------3--3--3-3--3-------------------|

===========================================================================================
Standard Tuning (EADGBe)
Guitar 2 (Jeremy): (Distortion and Overdrive)

Verse (x4):
e--------8-------9-------8-8-8h9----8h9------|
B-11-9-11-11-9-11-11-9-11-------11-9---11-7~-|
G--------------------------------------------|
D--------------------------------------------|
A--------------------------------------------|
E--------------------------------------------|

Chorus (x4):
e-11-9------------------------|
B-----10-10/11-10-------------|
G----------------11-11/13-11~-|
D-----------------------------|
A-----------------------------|
E-----------------------------|

===========================================================================================
Standard Tuning (EADG)
Bass (Scott):

Verse (x4):
G---------------------|
D---------------------|
A--11-11--9-9-8-8-6-6-|
E-9--9---8-8-6-6-4-4--|

Pre-Chorus (x2):
G-------------------|
D-------------------|
A-6-6-6-6h8-4-4-4-4-|
E-------------------|

Chorus (x4):
G--------------------------|
D-----------6-6-6-6/8\6----|
A--4-4-6-6-4-4-4-------8-6-|
E-2-2-4-4------------------|

Bridge (x4):
G-------------------------------|
D-------------------------------|
A-9-9-9-9-7-7-7-7-------6-6-6-6-|
E----------------7-7-7-7--------|

===========================================================================================
Lyrics:

Verse:
If today were my last day,
I'd want to change my ways.
You're a beauty and a reminder
She's the girl. I need to find her.

Because you can make me smile
But only once in a while.
I remember who I am.
I can't be someone else. (Damn)

Chorus:
I'll run into traffic to see how it feels to die.
If a car hit me, would you cry?
Ask if I'm happy with how I used to be
And I'd probably disagree.

Verse:
You ask where I've been.
I didn't get a goodbye.
You say that I missed you and grin.
And I just stare into your eyes.

I may not like myself, but you like me.
And I like that about me.
I'm scared of being alone,
I'd rather have someone break my bones.

Chorus:
I'll run into traffic to see how it feels to die.
If a car hit me, would you cry?
Ask if I'm happy with how I used to be
And I'd probably disagree.

Bridge:
Promise you'll never leave,
No matter who I am
I wish I could be better for you
I'm trying, but I can't. (Pause)

Chorus:
I'll run into traffic to see how it feels to die.
If a car hit me, would you cry?
Ask if I'm happy with how I used to be
And I'd probably disagree.
Добавлено: 12.10.2015
Другие материалы по этой песне:
  • Аккорды и текст

Страница создана 12.10.2015
http://primanota.ru/misc-unsigned-bands/avenue-over-traffic-chords.htm
Привет, Гость.
Предлагаем пройти революционный курс по гитаре.
Подарок от PrimaNota.Ru, забирай!