PrimaNota.ru - самый крупный в мире бесплатный архив песенных текстов, аккордов, табулатур и нот


Misc Unsigned Bands - Bear With Me - The Death Of James Adams - таба, видео

Регистрация Запомнить меня
Войти через:  Facebook Google Twitter Vk Yandex Mail.ru

Misc Unsigned Bands - Bear With Me - The Death Of James Adams - таба, видео

Печатать
Просмотров: 114
Уроки эстрадного вокала в Санкт-Петербурге
-------------------------------------------------------------------------------
                 The Death of James Adams - Bear With Me
-------------------------------------------------------------------------------
Tabbed by: Carter Harris
E-mail: richcarterharris@gmail.com

Tuning: Standard

Intro:
Guitar 1
e|--------------------------------------------------------------------|
B|--------------------------------------------------------------------|
G|--------------------------------------------------------------------|
D|-------------------------------8------------------------------------|
A|-10--10-8-10--10-8-10--10-8-10----10--10-8-10--10-8-10--10-8-10-----|
E|---------------------------------------------------------------8----|

Guitar 2
e|--------------------------------------------------------------------|
B|--------------------------------------------------------------------|
G|--------------------------------------------------------------------|
D|--------------------------------------------------------------------|
A|------------------------1-------------------------3-----------------|
E|-3--3-1-3--3-1-3--3-1-3----3--3-1-3--3-1-3--3-1-3-------------------|

Guitar 1
e|---------------------------------------------------------|
B|---------------------------------------------------------|
G|---------------------------------------------------------|
D|-------------------------------8---------10/11-10--8-----|
A|-10--10-8-10--10-8-10--10-8-10----10--8-------------8----|
E|---------------------------------------------------------|

Guitar 2
e|---------------------------------------------------------|
B|---------------------------------------------------------|
G|---------------------------------------------------------|
D|---------------------------------------------------------|
A|------------------------1--------3/4-3-1-----------------|
E|-3--3-1-3--3-1-3--3-1-3----3--1----------1---------------|


Verse 1:
Guitar 1
e|--------------------------------------------------------------|
B|--------------------------------------------------------------|
G|--------------------------------------------------------------|
D|----------------------------8---------------------------------|
A|-10-8-10-8-10--10-8-10-8-10----10-8-10-8-10--10-8-10-8-10-----|
E|----------------------------------------------------------8---|

e|-------------------------------------------------------|
B|-------------------------------------------------------|
G|-------------------------------------------------------|
D|----------------------------8---------10/11-10-8-------|
A|-10-8-10-8-10--10-8-10-8-10----10--8-------------8-----|
E|-------------------------------------------------------|

e|-----------------------------------------------------------------|
B|-----------------------------------------------------------------|
G|-----------------------------------------------------------------|
D|----------------------------8------------------------------------|
A|-10-8-10-8-10--10-8-10-8-10----10-8-10-8-10--10-8-10-8-10--------|
E|----------------------------------------------------------8------|

e|-------------------------------------------------------|
B|-------------------------------------------------------|
G|-------------------------------------------------------|
D|----------------------------8---------10/11-10---------|
A|-10-8-10-8-10--10-8-10-8-10----10--8-----------8-------|
E|-------------------------------------------------10----|

Pre-Chorus:
Guitar 1
e|-----------------------------------|
B|-----------------------------------|
G|-----------------------------------|
D|-----------------------------------|
A|-------------888888-6-9----10\-----|
E|-8--8-6-8-6------------------------|

Chorus:
Guitar 1
e|--------------------------------------|
B|--11----------------------------------|
G|--12-----7-----8------7-----11--------|
D|--12-x8--8-----10-----8-----12--------|
A|--10-----8-x8--10-x8--8-x4--12-x4-----|
E|---------6-----8------6-----10--------|

Guitar 1
e|------------------------------------------------|
B|--11--------------------------------------------|
G|--12-----7-----8------7-7-----------------------|
D|--12-x8--8-----10-----8-8---10/11-10-8----------|
A|--10-----8-x8--10-x8--8-8--------------10-8-----|
E|---------6-----8------6-6-----------------------|

Guitar 2
e|-------------------------------------------------------------------------------------------------------|
B|-11------11-----11-----11----13------13------13-----13----15-----1515151515-1313--11-11--13/14--15-----|
G|-----12-12---12-----12----12-----12-12----12------12----12---12--1212121212-1212--10-10--12/13--14-----|
D|-------------------------------------------------------------------------------------------------------|
A|-------------------------------------------------------------------------------------------------------|
E|-------------------------------------------------------------------------------------------------------|

Intro

Verse 2:
Guitar 1
e|------------------------------------------------------------------------------------|
B|-----------11--------------11----------8-----------8------------6------------6------|
G|-----------12--------------12----------8-----------8------------7------------7------|
D|-----------12--------------12----------10----------10-----------8------------8------|
A|-10-8-10-8-10---10-8-10-8--10----------10----------10-----------8------------8------|
E|-------------------------------8-6-8-6-8--8-6-8-6--8----6-3-6-3-6---6-3-6-3--6------|

e|------------------------------------|
B|-----------10--------------10-------|
G|-----------11--------------11-------|
D|-----------12--------------12-------|
A|-----------12--------------11-------|
E|-10-8-10-8-10---10-8-10-8--10-------|

e|------------------------------------------------------------------------------------|
B|-----------11--------------11----------8-----------8------------6------------6------|
G|-----------12--------------12----------8-----------8------------7------------7------|
D|-----------12--------------12----------10----------10-----------8------------8------|
A|-10-8-10-8-10---10-8-10-8--10----------10----------10-----------8------------8------|
E|-------------------------------8-6-8-6-8--8-6-8-6--8----6-3-6-3-6---6-3-6-3--6------|

e|------------------------------|
B|-----------10-----------------|
G|-----------11-----------------|
D|-----------12-----------------|
A|-----------12-----------------|
E|-10-8-10-8-10---10-10--9-8----|

Pre-chorus

Chorus

Bridge
Guitar 1
e|------------|
B|------------|
G|------------|
D|------------| x8
A|-10--8-10---|
E|------------|

Guitar 2 (w/slide)
e|------------------------|
B|/////-------------------|
G|/////---12--12/10-------|
D|/////---12--12/10-------| x4
A|/////-------------------|
E|------------------------|

Chorus
 
Outro:
Guitar 1
e|----------------------------------------------------------------------------------------|
B|----------------------------------------------------------------------------------------|
G|----------------------------------------------------------------------------------------|
D|-8-8---10--12-----8-8---10-------------------------------8-8---10/11-10-8---------------|
A|-8-8---10--12-----8-8---10-------------------------------8-8--------------10-8---10-----|
E|-6-6---8---10-----6-6---8--------------------------------6-6----------------------------|

Guitar 2
e|---------------------------------13-----------------------------------------------------|
B|---------------------------16b18--------------------------------------------------------|
G|------------------------------------15p13----13-----------------------------------------|
D|------------------------------------------15---15-13-15---------------------------------|
A|----------------------------------------------------------------------------------------|
E|----------------------------------------------------------------------------------------|


************************************

| /   slide up
| \   slide down
| h   hammer-on
| p   pull-off
| ~   vibrato
| +   harmonic
| x   Mute note
| b   Bend
| pb  Pre-bend
| br  Bend release
| pbr Pre-bend release
| brb Bend release bend

************************************
Добавлено: 12.10.2015
Другие материалы по этой песне:
  • Аккорды и текст

Страница создана 12.10.2015
http://primanota.ru/misc-unsigned-bands/bear-with-me-death-of-james-adams-chords.htm
Привет, Гость.
Предлагаем пройти революционный курс по гитаре.
Подарок от PrimaNota.Ru, забирай!