PrimaNota.ru - самый крупный в мире бесплатный архив песенных текстов, аккордов, табулатур и нот


Misc Unsigned Bands - Bethel Church - Closer - таба

Регистрация Запомнить меня
Войти через:  Facebook Google Twitter Vk Yandex Mail.ru

Misc Unsigned Bands - Bethel Church - Closer - таба

Печатать
Просмотров: 126
-------------------------------------------------------------------------------
                             Closer - Bethel Church
-------------------------------------------------------------------------------

Tabbed by: daxaquaticx - Michael Willian Santos - Me.
E-mail: dax-soft@live.com
Facebook : https://www.facebook.com/michael.willian.3956
Reference : https://www.facebook.com/video.php?v=394202200729413&set=vb.100004189086371&type=3&theater
Video of Music : https://www.youtube.com/watch?v=jas8siNG3Bo

Chords to use: Cm/F#m/E/Am
Tuning: EADGBe

• Intro :

e|---------4/5--4---4/5--4---------------------------------------------------|
B|--------------------------5---7---5---0------------------------------------|
G|---------------------------------------------------------------------------|
D|---------------------------------------------------------------------------|
A|---------------------------------------------------------------------------|
E|--0-----------------------------------0------------------------------------|

e|---------4/5--4---4/5--4---------------------------------------------------|
B|--------------------------5---7---5---0------------------------------------|
G|---------------------------------------------------------------------------|
D|---------------------------------------------------------------------------|
A|---------------------------------------------------------------------------|
E|--------------------------------------0------------------------------------|(Repeat 6x)

• Second paragrah. (Repeat 2x)

e|--4---444444444---4h5---4--0----444444444---4h5---4--0---------------------|
B|---------------------------------------------------------------------------|
G|---------------------------------------------------------------------------|
D|---------------------------------------------------------------------------|
A|---------------------------------------------------------------------------|
E|---------------------------0-------------------------0---------------------|

e|---------------------------------------------------------------------------|
B|----5555---5h7--5---0------------------------------------------------------|
G|---------------------------------------------------------------------------|
D|---------------------------------------------------------------------------|
A|---------------------------------------------------------------------------|
E|--------------------0------------------------------------------------------|

• Last part.

e|--9---999999--5--0--999999---5--0--555--5h7--5--0--5555--5h7--0--5--9------|
B|---------------------------------------------------------------------------|
G|---------------------------------------------------------------------------|
D|---------------------------------------------------------------------------|
A|---------------------------------------------------------------------------|
E|--0---000000--0--0--000000---0--0--000--0-0--0--0--0000--0-0--0--0--0------|(Repeat 2x)


************************************

| /   slide up
| \   slide down
| h   hammer-on
| p   pull-off
| ~   vibrato
| +   harmonic
| x   Mute note
| b   Bend
| pb  Pre-bend
| br  Bend release
| pbr Pre-bend release
| brb Bend release bend

************************************
Добавлено: 16.10.2015
Другие материалы по этой песне:
  • Аккорды и текст

Страница создана 16.10.2015
http://primanota.ru/misc-unsigned-bands/bethel-church-closer-chords.htm
Привет, Гость.
Предлагаем пройти революционный курс по гитаре.
Подарок от PrimaNota.Ru, забирай!