PrimaNota.ru - самый крупный в мире бесплатный архив песенных текстов, аккордов, табулатур и нот


Misc Unsigned Bands - Bb Mckinney - Have Faith In God - таба

Регистрация Запомнить меня
Войти через:  Facebook Google Twitter Vk Yandex Mail.ru

Misc Unsigned Bands - Bb Mckinney - Have Faith In God - таба

Печатать
Просмотров: 82
-------------------------------------------------------------------------------
                        have faith in God - B.B. mckinney
-------------------------------------------------------------------------------
Tabbed by:
E-mail:
key of C
Tuning:E-A-D-G-B-e

e|---------------------------------------------------------------------------|
B|-------------------------0----1---0----------------------------------------|
G|--0-------------0---2----0----2---0---2---2--0--0-------------------------2|
D|--2-----2----3--2---3-----------------3---3--2--0---3---2----0----2---3---3|
A|--------3----5--------------------------------------5---3----2----3---5----|
E|---------------------------------------------------------------------------|

   Have faith in God when your pathway is lonely He sees and knows all the way

e|---------------------------------------------------------------------------------------------|
B|----------------------------1---1----3----1--------0------1-----0------------1----1----3--1--|
G|--0-------------0-------0-------0---------0--0-----0--2---2-----0----2--0----0----0----0--0--|
D|--2----3----2---2-2--3--2---2--------3----------------3--------------3--2--------------------|
A|-------5----3-----3--5-----------------------------------------------------------------------|
E|---------------------------------------------------------------------------------------------|

   you have trod never alone are the least of His children have faith in God have faith in God  

e|---------------------------------------------------------------------------|
B|------------------1--0--------0--3-----1-----1----------------1----1-------|
G|--------0----1------------0------------------2----0----2--0---0------2---0-|
D|--------2----2----2--0----3---3--3-----2----------0----3--2----------3---3-|
A|---------------------------------------------------------------------------|
E|---------------------------------------------------------------------------|

chorus: have faith in God He's on His throne have faith in God He watches o'er

e|-------------------------0-------------------------------------------------|
B|--1---3-------------1--------3----1-------1----0-----------1-----1----3--1-|
G|------0---0--2--0--------0---0----0--2--------------2--0---0---------------|
D|--3-------2--3--2---2----------------3----1----0----0--2--------------3--2-|
A|---------------------------------------------------------------------------|
E|---------------------------------------------------------------------------|
   His own He cannot fail He must prevail have faith in God have faith in God



************************************

| /   slide up
| \   slide down
| h   hammer-on
| p   pull-off
| ~   vibrato
| +   harmonic
| x   Mute note
| b   Bend
| pb  Pre-bend
| br  Bend release
| pbr Pre-bend release
| brb Bend release bend

************************************
Добавлено: 12.10.2015
Другие материалы по этой песне:
  • Аккорды и текст

Страница создана 12.10.2015
http://primanota.ru/misc-unsigned-bands/bb-mckinney-have-faith-in-god-chords.htm
Привет, Гость.
Предлагаем пройти революционный курс по гитаре.
Подарок от PrimaNota.Ru, забирай!