PrimaNota.ru - самый крупный в мире бесплатный архив песенных текстов, аккордов, табулатур и нот


Misc Unsigned Bands - Bear With Me - The Old Saying - таба, видео

Регистрация Запомнить меня
Войти через:  Facebook Google Twitter Vk Yandex Mail.ru

Misc Unsigned Bands - Bear With Me - The Old Saying - таба, видео

Печатать
Просмотров: 105
-------------------------------------------------------------------------------
                             The Old Saying - Bear With Me
-------------------------------------------------------------------------------
Tabbed by: Carter Harris
E-mail: rcharris@uncg.edu

Tuning:Standard

Intro
Guitar I
e|------|
B|------|
G|------|
D|------|
A|------|
E|--6~--|

Verse
Guitar I
e|-----------------------------------------------------------|
B|-----------------------------------------------------------|
G|-----------------------------------------------------------|
D|-----3h4p3-------------------------3h4p3--------3-464-3----|
A|---4-------6-4-3--3-3h4p3--------4-------6-4-6-------------|
E|-6------------------------6-5-6----------------------------|

Guitar II
e|-----------------------------------------------------------|
B|-----------------------------------------------------------|
G|------------------------------------------------3-464-3----|
D|-----3h4p3-------------------------3h4p3-------------------|
A|---4-------6-4-3--3-3h4p3--------4-------6-4-6-------------|
E|-6------------------------6-5-6----------------------------|

Guitar I
e|-----------------------------------------------------------|
B|-----------------------------------------------------------|
G|-----------------------------------------------------------|
D|-----3h4p3-------------------------3h4p3-------------------|
A|---4-------6-4-3--3-3h4p3--------4-------6-4--------3--4---|
E|-6------------------------6-5-6---------------6-5-6--------|

Guitar II
e|-----------------------------------------------------------|
B|-----------------------------------------------------------|
G|-----------------------------------------------------------|
D|-----3h4p3-------------------------3h4p3------------1--3---|
A|---4-------6-4-3--3-3h4p3--------4-------6-4--4-3-4--------|
E|-6------------------------6-5-6----------------------------|

Chorus
Guitar 1
e|-----------------------------------------------------------------------------------|
B|-----------------------------------------------------------------------------------|
G|-----------------------------------------------------------------------------------|
D|-----------------------------------------------------------------------------------|
A|-----------------------------------------------------------------------------4-3-0-|
E|-------------------------------------------------------------------1-0-1-3-4-------|
 
Guitar II
e|--------------------------------------------------------------------------------|
B|-2-22-222----------8-88-888-6-66-88-66-2-22-222---------------------------------|
G|-3-33-333-3-33-333-8-88-888-6-66-88-66-3-33-333-3-33-333-22222222-22222222------|
D|-3-33-333-4-44-444-8-88-888-6-66-88-66-3-33-333-4-44-444-33333333-11111111------|
A|-1-11-111-4-44-444-6-66-666-4-44-66-44-1-11-111-4-44-444-33333333-33333333------|
E|----------2-22-222------------------------------2-22-222-11111111-11111111------|

Guitar I
e|-------------------------------------------------------------------------------------|
B|-------------------------------------------------------------------------------------|
G|-101010101010-111111111111-121212121212-131313131313--101010101010-6-66/8\6-55555555-|
D|-------------------------------------------------------------------------------------|
A|-8-8-8-8-8-8--9-9-9-9-9-9--101010101010-111111111111--8-8-8-8-8-8--4-44/6\4-33333333-|
E|-------------------------------------------------------------------------------------|

Guitar II
e|---------------------------------------------------------------------------|
B|-2-22-222----------8-88-888-10101010-10--2-22-222--------------------------|
G|-3-33-333-3-33-333-8-88-888-10101010-10--3-33-333-3-33-333-22222222-2------|
D|-3-33-333-4-44-444-8-88-888-10101010-10--3-33-333-4-44-444-33333333-3------|
A|-1-11-111-4-44-444-6-66-666-8-8-8-8--8---1-11-111-4-44-444-33333333-3------|
E|----------2-22-222--------------------------------2-22-222-11111111-1------|

Guitar I
e|------------------|
B|------------------|
G|------------------|
D|------------------|
A|-8-6-4-6-4-3-0-3--|
E|------------------|

Guitar I
e|-----------------------------------------------------------|
B|-----------------------------------------------------------|
G|-----------------------------------------------------------|
D|-----3h4p3-------------------------3h4p3-------------------|
A|---4-------6-4-3--3-3h4p3--------4-------6-4--------3--4---|
E|-6------------------------6-5-6---------------6-5-6--------|

Guitar II
e|-----------------------------------------------------------|
B|-----------------------------------------------------------|
G|-----------------------------------------------------------|
D|-----3h4p3-------------------------3h4p3------------1--3---|
A|---4-------6-4-3--3-3h4p3--------4-------6-4--4-3-4--------|
E|-6------------------------6-5-6----------------------------|

Verse II
Guitar I (Flamenco Style)                                        v Guitar II comes in here
e|---111-1-1---222-2-2---111-1-1---666---------111-1-1---222-2-2--1-1-1-1--1-1-1-1-----|
B|---222-2-2---222-2-2---111-1-1---888--6-6----222-2-2---222-2-2--1-1-1-1--1-1-1-1-----|
G|---333-3-3---333-3-3---222-2-2---888--6-6----333-3-3---333-3-3--2-2-2-2--2-2-2-2-----|
D|---333-3-3---444-4-4---333-3-3---888--6-6----333-3-3---444-4-4--3-3-3-3--3-3-3-3--6--|
A|-1-111--1----444-4-4---333-3-3-6-666--4-4--1-111--1----444-4-4--3-3-3-3--3-3-3-3--6--|
E|-----------2-222--2--1-111--1------------------------2-222--2---1-1-1-1--1-1-1-1--4--|

Guitar I
e|---666-6-6----222-2-2----222-2-2----111-1-1----666-6-6----222-2-2--------------------|
B|---666-6-6----222-2-2----222-2-2----111-1-1----666-6-6----222-2-2--8-8-8-8--10101010-|
G|---666-6-6----333-3-3----333-3-3----222-2-2----666-6-6----333-3-3--8-8-8-8--10101010-|
D|---888-8-8----444-4-4----222-2-2----333-3-3----888-8-8----444-4-4--8-8-8-8--10101010-|
A|---888-8-8----444-4-4----444-4-4----333-3-3----888-8-8----444-4-4--6-6-6-6--8-8-8-8--|
E|-6-666--6---2-222--2---2-222--2---1-111-1-1--6-666--6---2-222--2---------------------|

Guitar II
e|-6~---------6~---------9~---------8~---------6~---------6~---------------------------|
B|-6~---------7~---------7~---------6~---------6~---------7~---------8-8-8-8--10101010-|
G|-6~---------6~---------6~---------5~---------6~---------6~---------8-8-8-8--10101010-|
D|-------------------------------------------------------------------8-8-8-8--10101010-|
A|-------------------------------------------------------------------------------------|
E|-------------------------------------------------------------------------------------|

Chorus
Guitar 1
e|-----------------------------------------------------------------------------------|
B|-----------------------------------------------------------------------------------|
G|-----------------------------------------------------------------------------------|
D|-----------------------------------------------------------------------------------|
A|-----------------------------------------------------------------------------4-3-0-|
E|-------------------------------------------------------------------1-0-1-3-4-------|
 
Guitar II
e|--------------------------------------------------------------------------------|
B|-2-22-222----------8-88-888-6-66-88-66-2-22-222---------------------------------|
G|-3-33-333-3-33-333-8-88-888-6-66-88-66-3-33-333-3-33-333-22222222-22222222------|
D|-3-33-333-4-44-444-8-88-888-6-66-88-66-3-33-333-4-44-444-33333333-11111111------|
A|-1-11-111-4-44-444-6-66-666-4-44-66-44-1-11-111-4-44-444-33333333-33333333------|
E|----------2-22-222------------------------------2-22-222-11111111-11111111------|

Guitar I
e|-------------------------------------------------------------------------------------|
B|-------------------------------------------------------------------------------------|
G|-101010101010-111111111111-121212121212-131313131313--101010101010-6-66/8\6-55555555-|
D|-------------------------------------------------------------------------------------|
A|-8-8-8-8-8-8--9-9-9-9-9-9--101010101010-111111111111--8-8-8-8-8-8--4-44/6\4-33333333-|
E|-------------------------------------------------------------------------------------|

Guitar II
e|---------------------------------------------------------------------------|
B|-2-22-222----------8-88-888-10101010-10--2-22-222--------------------------|
G|-3-33-333-3-33-333-8-88-888-10101010-10--3-33-333-3-33-333-22222222-2------|
D|-3-33-333-4-44-444-8-88-888-10101010-10--3-33-333-4-44-444-33333333-3------|
A|-1-11-111-4-44-444-6-66-666-8-8-8-8--8---1-11-111-4-44-444-33333333-3------|
E|----------2-22-222--------------------------------2-22-222-11111111-1------|

Guitar I
e|------------------|
B|------------------|
G|------------------|
D|------------------|
A|-8-6-4-6-4-3-0-3--|
E|------------------|

Guitar I
e|-----------1~--------|
B|-----------2~--------|
G|-----------3~--------|
D|-----------3~--------|
A|-1~--------1~--------|
E|---------------------|

Bridge
Guitar I
e|-6-6-6----5-5-5----4-4-4----33333335----|
B|-6-6-6----6-6-6----6-6-6----66666666----|
G|-6-6-6----5-5-5----5-5-5----55555555----|
D|----------------------------------------|
A|----------------------------------------|
E|----------------------------------------|

Guitar I
e|-6-6-6----5-5-5----4-4-4----33333335--6---8-6-8--9--1111111111111111-1313131313131313-|
B|-6-6-6----6-6-6----6-6-6----66666666--6---6-6-6--6--1111111111111111-1313131313131313-|
G|-6-6-6----5-5-5----5-5-5----55555555--6---5-6-5--6--1212121212121212-1414141414141414-|
D|--------------------------------------------------------------------------------------|
A|--------------------------------------------------------------------------------------|
E|--------------------------------------------------------------------------------------|

Guitar II
e|-----------------------------------------------------------------------------|
B|-----------------------------------------------------------------------------|
G|-----------------------------------------------------------------------------|
D|--------------------------------------------------------------------3333-----|
A|-----------------------------------------------------------------------------|
E|-66666666-55555555-44444444-22222211-66666666-22222222-44444444-1111---------|

Guitar I
e|---111-1-1---222-2-2--6-6-6-6-6-6-6-6---111-1-1-----|
B|---222-2-2---222-2-2--8-8-8-8-8-8-8-8---111-1-1-----|
G|---333-3-3---333-3-3--8-8-8-8-8-8-8-8---222-2-2-----|
D|---333-3-3---444-4-4--8-8-8-8-8-8-8-8---333-3-3-----|
A|-1-111--1----444-4-4--6-6-6-6-6-6-6-6---333-3-3-----|
E|-----------2-222--2-------------------1-111--1------|

Guitar II
e|----------------------6-6-6-6-6-6-6-6---------------|
B|----------------------8-8-8-8-8-8-8-8---------------|
G|----------------------8-8-8-8-8-8-8-8---------------|
D|----------------------8-8-8-8-8-8-8-8---------------|
A|----------------------6-6-6-6-6-6-6-6---------------|
E|----------------------------------------------------|

Guitar 1
e|--------------------------------------------|
B|--------------------------------------------|
G|--------------------------------------------|
D|--------------------------------------------|
A|--------------------------------------4-3-0-|
E|----------------------------1-0-1-3-4-------|
 
Guitar II
e|------------------------------------------|
B|-2-22-222---------------------------------|
G|-3-33-333-3-33-333-22222222-22222222------|
D|-3-33-333-4-44-444-33333333-11111111------|
A|-1-11-111-4-44-444-33333333-33333333------|
E|----------2-22-222-11111111-11111111------|

Guitar I
e|-------------------------------------------------------------------------------------|
B|-------------------------------------------------------------------------------------|
G|-101010101010-111111111111-121212121212-131313131313--101010101010-6-66/8\6-55555555-|
D|-------------------------------------------------------------------------------------|
A|-8-8-8-8-8-8--9-9-9-9-9-9--101010101010-111111111111--8-8-8-8-8-8--4-44/6\4-33333333-|
E|-------------------------------------------------------------------------------------|

Guitar II
e|----------------------------------------------------------------------=-----|
B|-2-22-222-6-66-666-8-88-888-101010-10-10--2-22-222--------------------------|
G|-3-33-333-6-66-666-8-88-888-101010-10-10--3-33-333-3-33-333-22222222-2------|
D|-3-33-333-6-66-666-8-88-888-101010-10-10--3-33-333-4-44-444-33333333-3------|
A|-1-11-111-4-44-444-6-66-666-8-8-8--8--8---1-11-111-4-44-444-33333333-3------|
E|---------------------------------------------------2-22-222-11111111-1------|

Guitar I
e|-------------------|
B|-------------------|
G|-------------------|
D|-------------------|
A|-8-6-4-6-4-3-0-3-1-|
E|-------------------|

Guitar I
e|--6~-----|
B|--6~-----|
G|--6~-----|
D|--8~-----|
A|---------|
E|---------|


************************************

| /   slide up
| \   slide down
| h   hammer-on
| p   pull-off
| ~   vibrato
| +   harmonic
| x   Mute note
| b   Bend
| pb  Pre-bend
| br  Bend release
| pbr Pre-bend release
| brb Bend release bend

************************************
Добавлено: 15.10.2015
Другие материалы по этой песне:
  • Аккорды и текст

Страница создана 15.10.2015
http://primanota.ru/misc-unsigned-bands/bear-with-me-old-saying-chords.htm
Привет, Гость.
Предлагаем пройти революционный курс по гитаре.
Подарок от PrimaNota.Ru, забирай!