PrimaNota.ru - самый крупный в мире бесплатный архив песенных текстов, аккордов, табулатур и нот


Misc Unsigned Bands - Barton Carroll - Those Days Are Gone And My Heart Is Breaking - таба

Регистрация Запомнить меня
Войти через:  Facebook Google Twitter Vk Yandex Mail.ru

Misc Unsigned Bands - Barton Carroll - Those Days Are Gone And My Heart Is Breaking - таба

Печатать
Просмотров: 107
-------------------------------------------------------------------------------
        Those Days are Gone and My Heart is Breaking - Barton Carroll
-------------------------------------------------------------------------------
Tabbed by: Jess
E-mail: a_mai1298@yahoo.com
Artist Website: http://bartoncarroll.com/
Tuning: EADGBe


Intro
   
e|---2-------0-------0-------0---0h2-------0-------0-------0-----------------|
B|-------3-------3-------3-------------3-------3-------3---------------------|
G|---2-----2-------2-------2-----2-------2-------2-------2-------------------|
D|-0---0-------0-------0-------0-----0-------0-------0-----------------------|
A|---------------------------------------------------------------------------|
E|---------------------------------------------------------------------------|

Verse
  
     Hey Danny boy, I was thinking of our crew   
e|---0h2-------2---2-------0---0-------0---0-------0-------------------------|
B|---------3-----------3-----------3-----------3-----------------------------|
G|---2-------2-----2-----2-----2-----2-----2-----2---------------------------| 
D|-0-----0-------0---0-------0---0-------0---0-------------------------------| 
A|---------------------------------------------------------------------------|
E|---------------------------------------------------------------------------|   
              
     But thinking just makes me sad, and that's why I write to you  
e|---0h2-------2---2-------0---0-------0---0-------0-------------------------|
B|---------3-----------3-----------3-----------3-----------------------------|
G|---2-------2-----2-----2-----2-----2-----2-----2---------------------------| 
D|-0-----0-------0---0-------0---0-------0---0-------------------------------|
A|---------------------------------------------------------------------------|
E|---------------------------------------------------------------------------|

                   How do you do             There's been
e|-----0-------0---0-------0---3-------3---3-------3-------------------------|
B|---------2-----------2-----------3-----------3-----------------------------|
G|-----------------------------0-----0-----0-----0---------------------------|
D|-----0-----0-----0-----0---------------------------------------------------|
A|-0h2---2-------2---2-------------------------------------------------------|
E|---------------------------3---3-------3---3-------------------------------|

     years between us
e|---2-------0---0-------0---0h2-------0-------0-----------------------------|
B|-------3-----------3-------------3-------3---------------------------------|
G|---2-----2-----2-----2-----2-------2-------2-------------------------------| 
D|-0---0-------0---0-------0-----0-------0-----------------------------------| 
A|---------------------------------------------------------------------------|  
E|---------------------------------------------------------------------------|   
              
     Didn't we have big ideas when our school was done
e|---0-------2---2-------0---0-------0---0-------0-------------------------|
B|-------3-----------3-----------3-----------3-----------------------------|
G|---2-----2-----2-----2-----2-----2-----2-----2---------------------------| 
D|-0---0-------0---0-------0---0-------0---0-------------------------------| 
A|---------------------------------------------------------------------------|
E|---------------------------------------------------------------------------|   
              
     We'd leave our smaller minds and move out to Oregon
e|---2-------2---2-------0---0-------0---0-------0---------------------------|
B|-------3-----------3-----------3-----------3-------------------------------|
G|---2-----2-----2-----2-----2-----2-----2-----2-----------------------------| 
D|-0---0-------0---0-------0---0-------0---0---------------------------------| 
A|---------------------------------------------------------------------------|
E|---------------------------------------------------------------------------|   
      
                   But I was the only one.. Who went         
e|---0-------0---0-------0---3-------3---3-------3---------------------------|
B|-------2-----------2-----------3-----------3-------------------------------|
G|---------------------------------------------------------------------------|
D|---0-----0-----0-----0-----0-----0-----0-----0-----------------------------|
A|-2---2-------2---2---------------------------------------------------------|
E|-------------------------3---3-------3---3---------------------------------|

   The road less taken
e|---2-------0---0-------0---0h2-------0-------0-----------------------------|
B|-------3-----------3-------------3-------3---------------------------------|
G|---2-----2-----2-----2-----2-------2-------2-------------------------------| 
D|-0---0-------0---0-------0-----0-------0-----------------------------------| 
A|---------------------------------------------------------------------------|  
E|---------------------------------------------------------------------------|   
              

e|---0-------0---0-------0---3-------3---3-------3---------------------------|
B|-------2-----------2-----------3-----------3-------------------------------|
G|---------------------------------------------------------------------------|
D|---0-----0-----0-----0-----0-----0-----0-----0-----------------------------|
A|-2---2-------2---2---------------------------------------------------------|
E|-------------------------3---3-------3---3---------------------------------|


e|---2-------0-------0-------0---0h2-------0-------0-------0-----------------|
B|-------3-------3-------3-------------3-------3-------3---------------------|
G|---2-----2-------2-------2-----2-------2-------2-------2-------------------|
D|-0---0-------0-------0-------0-----0-------0-------0-----------------------|
A|---------------------------------------------------------------------------|
E|---------------------------------------------------------------------------|

Verse x2

Bridge

   Always thought my heart to be a dark horse 
e|---0-------0---0---0---0---3-------3---3-------0---------------------------|
B|-------2-----------------------3-----------3-------------------------------|
G|---------------------------------------------------------------------------|
D|---2-----2-----2-----2-----0-----0-----0-----0-----------------------------|
A|-0---0-------0---0---------------------------------------------------------|
E|-------------------------3---3-------3---3---------------------------------|

   Laying low 'til race day came along
e|---0-------0---0-------0---0-------0---0-------0---------------------------|
B|-------2-----------5-----------0-----------0-------------------------------|
G|---------------------------------------------------------------------------|
D|---2-----2-----2-----2-----2-----2-----2-----2-----------------------------|
A|-0---0-------0---0---------------------------------------------------------|
E|-------------------------0---0-------0---0---------------------------------|

   Lately my heart's feeling like a dart board
e|---0-------0---0-------0---3-------3---3-------0---------------------------|
B|-------2-----------5-----------3-----------3-------------------------------|
G|---------------------------------------------------------------------------|
D|---2-----2-----2-----2-----0-----0-----0-----0-----------------------------|
A|-0---0-------0---0---------------------------------------------------------|
E|-------------------------3---3-------3---3---------------------------------|

   And that's not something I had planned at all
e|---0-------0---0-------0---2-------0-------0-------0---0h2-------0-------0-------0-----|
B|-------5-----------5-----------3-------3-------3-------------3-------3-------3---------|
G|---------------------------2-----2-------2-------2-----2-------2-------2-------2-------|
D|-------------------------0---0-------0-------0-------0-----0-------0-------0-----------|
A|---2-----2-----2-----2-----------------------------------------------------------------|
E|-0---0-------0---0---------------------------------------------------------------------|

Repeat verse one more time

                                                The End :D

************************************

| h   hammer-on

************************************
Добавлено: 12.10.2015
Другие материалы по этой песне:
  • Аккорды и текст

Страница создана 12.10.2015
http://primanota.ru/misc-unsigned-bands/barton-carroll-those-days-are-gone-and-my-heart-is-breaking-chords.htm
Привет, Гость.
Предлагаем пройти революционный курс по гитаре.
Подарок от PrimaNota.Ru, забирай!