PrimaNota.ru - самый крупный в мире бесплатный архив песенных текстов, аккордов, табулатур и нот


Misc Unsigned Bands - August Oster - Folk Fortress - таба

Регистрация Запомнить меня
Войти через:  Facebook Google Twitter Vk Yandex Mail.ru

Misc Unsigned Bands - August Oster - Folk Fortress - таба

Печатать
Просмотров: 36
-----------------------------------------------------------------------------
                          Folk Fortress - August Oster
-----------------------------------------------------------------------------

Tabbed by: August Oster
Email: osterhoutben@gmail

Tuning: Open D (DADF#AD)

*******************************
Legend
h = hammer on
p = pull off
/ = slide up
\ = slide down
+ = harmonic
<> = artificial harmonic
~ = tremolo
*******************************



d |--------0---------------0--------|--------0---------------0--------|
A |--0---------------0--------------|--0---------------0--------------|
F#|----5-------5-------5------------|----3-------3-------7-------7----|
D |------0-------0-------0-------0--|------0-------0-------0-------0--|
A |---------------------------------|---------------------------------|
D |--5-------5-------5-------5------|--4-------4-----/-7-------7------|


d |--------0---------------0--------|--------0------------------------|
A |--0---------------0--------------|--0-------------0----------------|
F#|-\--5-------5-------5------------|----10------10-------------------|
D |------0-------0-------0-------0--|------0-------0-------0-------0--|
A |---------------------------------|---------------------------------|
D |-\5-------5-------5-------5------|-/9-------9-------9-------9------|


d |--------0------------------------|
A |--0-------------0----------------|
F#|-\--2-------2--------------------|
D |------0-------0-------0----------|
A |---------------------------------|
D |-\2-------2-------2-------4-\-2--|


d |---------------------------------|-------------------------|
A |------0h2-----2/5-----0-------9\7|--------4-------5-------0|
F#|---------------------------------|----0-------0-------0----|
D |---------------------------------|------0-------0-------0--|
A |------0h2-----2/5-----0-------9\7|-------------------------|
D |--0-------0-------0-------0------|--0-------0-------0------|


d |---------------------------------|---------------------------------|
A |------0h2-----2/5-----0-------9\7|--------4-------5-------5----5/12|
F#|---------------------------------|----0-------0-------0------------|
D |---------------------------------|------0-------0-------0----------|
A |------0h2-----2/5-----0-------9\7|-----------------------------5/12|
D |--0-------0-------0-------0------|--0-------0-------0-------0------|


d |----------------0------|
A |------------12-----12--|
F#|--------0-----0----0---|
D |----0-----0--------0---|
A |------12-----------12--|
D |--0----------------0---|


d |------------------------2/------0|------------------------2/------0|
A |--------4-------0----------------|--------4-------0----------------|
F#|----0-------0-------0-------0----|----0-------0-------0-------0----|
D |------2-------0-------2--/----4--|------2-------0-------2--/----4--|
A |--4-------2----------------------|--4-------2----------------------|
D |------------------2------/4------|------------------2------/4------|


d |------------------------2/------5|----------------5/--------------7|
A |--------4-------0----------------|------------0---------------0----|
F#|----0-------0-------0-------0----|--------0-----0---------0-----0--|
D |------2-------0-------2--/----4--|----5-----5------/--7-----7------|
A |--4-------2----------------------|------0---------------0----------|
D |------------------2------/4------|--5--------------/7--------------|


d |--7-\-2-/-9-\-4--|---------------------------0------<11>--|
A |--0---0---0---0--|--------------------0--------<12>-------|
F#|--0---0---0---0--|-------------0--------<12>--------------|
D |--7-\-2-/-9-\-4--|-------4-------<11>---------------------|
A |--0---0---0---0--|---------<12>---------------------------|
D |--7-\-2-/-9-\-4--|--<11>----------------------------------|


d |---------------------------------|---------------------------------|
A |------0h2-----2/5-----0----------|---------------------------------|
F#|---------------------------------|------------------------------0h5|
D |------------------------------0h2|------2/5-----0-------0-------0h5|
A |------0h2-----2/5-----0-------0h2|------2/5-----0------------------|
D |--0-------0-------0-------0------|--0-------0----7\-0-------0------|


d |--------------7+------12+-----12+|
A |--------------7+------12+-----12+|
F#|------0-----------------------12+|
D |------0--------------------------|
A |---------------------------------|
D |--0-------0-------0-------0------|


d |---------------------------------|---------------------------------|
A |------0h2-----2/5-----0----------|---------------------------------|
F#|---------------------------------|------------------------------0h5|
D |------------------------------0h2|------2/5-----0-------0-------0h5|
A |------0h2-----2/5-----0-------0h2|------2/5-----0------------------|
D |--0-------0-------0-------0------|--0-------0----7\-0-------0------|


d |--------------7+------12+-----12+|
A |--------------7+------12+-----12+|
F#|------0-----------------------12+|
D |------0--------------------------|
A |---------------------------------|
D |--0-------0-------0-------0------|


d |----------------------------------|-------------------------|
A |--------------7p5-----5p0---------|-------------------------|
F#|------------------------------7/12|---12~-12~-12~-12~-------|
D |------0-------0-------0-------0---|------0-------0-------0--|
A |----------------------------------|-------------------------|
D |--0-------0-------0-------0-------|--0-------0-------0------|


d |----------------------------------|---------------------------------|
A |--------------7p5-----5p0---------|---------------------------------|
F#|------------------------------7/12|---12~-12~-12~-12~---------------|
D |------0-------0-------0-------0---|------0-------0-------0-------0--|
A |----------------------------------|---------------------------------|
D |--0-------0-------0-------0-------|--0-------0-------0-------0------|


d |---------------------------------|---------------------------------|
A |------9p0-------7----------------|------7p0-------5----------------|
F#|------------0--------------------|------------0--------------------|
D |------0-------7-------7-------7--|------7p0-----5-------5-------5--|
A |---------------------------------|---------------------------------|
D |--0-------0-------0-------0------|--0-------0-------0-------0------|


d |-----------------0h2h4------------|-----------------0h2h4------------|
A |-------5p4p0----------------------|-------5p4p0----------------------|
F#|----------------------------------|----------------------------------|
D |-------0---------0-------0-----0--|-------0---------0-------0-----0--|
A |----------------------------------|----------------------------------|
D |--0---------0---------0-----0-----|--0---------0---------0-----0-----|


d |---------------------------------|---------------------------------|
A |------9p0-------7----------------|------7p0-------5----------------|
F#|------------0--------------------|------------0--------------------|
D |------0-------7-------7-------7--|------7p0-----5-------5-------5--|
A |---------------------------------|---------------------------------|
D |--0-------0-------0-------0------|--0-------0-------0-------0------|


d |-----------------0h2h4------------|-----------------0h2h4------------|
A |-------5p4p0----------------------|-------5p4p0----------------------|
F#|----------------------------------|----------------------------------|
D |-------0---------0-------0-----0--|-------0---------0-------0-----0--|
A |----------------------------------|----------------------------------|
D |--0---------0---------0-----0-----|--0---------0---------0-----0-----|

  ...speed up really quickly and then slow back down before slide...
d |----------0---------------0------|----------0---------------0------|
A |--7---------------7--------------|--7---------------7--------------|
F#|-----0-------0-------0-------0---|-----0-------0-------0-------0---|
D |--------7-------7-------7-------7|--------7-------7-------7-------7|
A |---------------------------------|---------------------------------|
D |--0------------------------------|---------------------------------|

  ...speed up really quickly and then slow back down before slide...
d |----------0---------------0------|----------0---------------0------|
A |-\5---------------5--------------|--5---------------5--------------|
F#|-----0-------0-------0-------0---|-----0-------0-------0-------0---|
D |-\------5-------5-------5-------5|--------5-------5-------5-------5|
A |---------------------------------|---------------------------------|
D |--0------------------------------|---------------------------------|

 ...speed up really quickly and then slow back down before slide...
d |----------0---------------0------|----------0---------------0------|
A |-/7---------------7--------------|--7---------------7--------------|
F#|-----0-------0-------0-------0---|-----0-------0-------0-------0---|
D |-/------7-------7-------7-------7|--------7-------7-------7-------7|
A |---------------------------------|---------------------------------|
D |--0------------------------------|---------------------------------|

  ...speed up really quickly and then slow back down before next part |
d |----------0---------------0------|----------0---------------0------|
A |-\5---------------5--------------|--5---------------5--------------|
F#|-----0-------0-------0-------0---|-----0-------0-------0-------0---|
D |-\------5-------5-------5-------5|--------5-------5-------5-------5|
A |---------------------------------|---------------------------------|
D |--0------------------------------|---------------------------------|


d |--------0---------------0--------|--------0-------------5-/-7---0--|
A |--7-------------7----------------|-\5-------------0-----7-/-9---5--|
F#|----0-------0-------0-------0----|----0-------0--------------------|
D |------7-------7-------7-------7--|-\----5-------0------------------|
A |---------------------------------|---------------------------------|
D |--0-------0-------0-------0------|--0-------0-------0---0---0---0--|


d |--------0---------------0--------|--------0-------------5-/-7---0--|
A |--7-------------7----------------|-\5-------------0-----7-/-9---5--|
F#|----0-------0-------0-------0----|----0-------0--------------------|
D |------7-------7-------7-------7--|-\----5-------0------------------|
A |---------------------------------|---------------------------------|
D |--0-------0-------0-------0------|--0-------0-------0---0---0---0--|


d |--------0---------------0--------|--------0---------5-/-7---0--|
A |--7-------------/-12-------------|-\4-------------0-7-/-9---5--|
F#|----0---------------0------------|----0-------0----------------|
D |------7-------7-/-----12------12-|-\----4-------0--------------|
A |---------------------------------|-----------------------------|
D |--0-------0-------0-------0------|--0-------0-------0---0---0--|


d |--------0---------------0--------|--------0------------------------|
A |--7-------------/-12-------------|-\4-------------4----------------|
F#|----0---------------0------------|----0-------0--------------------|
D |------7-------7-/-----12------12-|-\----4-------4-------4-------4--|
A |---------------------------------|---------------------------------|
D |--0-------0-------0-------0------|--0-------0-------0-------0------|


d |--------0-----------------------|
A |--4-------------4---------------|
F#|----0-------0-------------------|
D |------4-------4-------4---------|
A |--------------------------------|
D |--0-------0-------0-------4-\-2-|


d |---------------------------------|---------------------------------|
A |------0h2-----2/5-----0----------|---------------------------------|
F#|---------------------------------|------------------------------0h5|
D |------------------------------0h2|------2/5-----0-------0-------0h5|
A |------0h2-----2/5-----0-------0h2|------2/5-----0------------------|
D |--0-------0-------0-------0------|--0-------0----7\-0-------0------|


d |--------------7+------12+-----12+|
A |--------------7+------12+-----12+|
F#|------0-----------------------12+|
D |------0--------------------------|
A |---------------------------------|
D |--0-------0-------0-------0------|


d |---------------------------------|---------------------------------|
A |------0h2-----2/5-----0----------|---------------------------------|
F#|---------------------------------|------------------------------0h5|
D |------------------------------0h2|------2/5-----0-------0-------0h5|
A |------0h2-----2/5-----0-------0h2|------2/5-----0------------------|
D |--0-------0-------0-------0------|--0-------0----7\-0-------0------|


d |--------------7+------12+-----12+|---------|
A |--------------7+------12+-----12+|---------|
F#|------0-----------------------12+|---------|
D |------0--------------------------|------0--|
A |---------------------------------|---------|
D |--0-------0-------0-------0------|--0------|


d |--------12+----------------------|--------12+-------5+----7+-------|
A |--12+-------------7+-------------|--12+---------------5+------7+---|
F#|----0---------------0---7+-------|----0-----------------5+------7+-|
D |------0-------0-------0-------0--|------0-------0------------------|
A |---------------------------------|---------------------------------|
D |--0-------0-------0-------0------|--0-------0----------------------|


d |-------12+----------------------|---------------12+--------------------|
A |-12+-------------7+-------------|-12+--------------7+-12+--------------|
F#|---0---------------0---7+-------|---0---12+--------------7+-12+--------|
D |-----0-------0-------0-------0--|-----0-------0----------------7+-12+--|
A |--------------------------------|------------------------------------7+|
D |-0-------0-------0-------0------|-0-------0----------------------------|


d |--------12+----------------------|--------12+-------5+----7+-------|
A |--12+-------------7+-------------|--12+---------------5+------7+---|
F#|----0---------------0---7+-------|----0-----------------5+------7+-|
D |------0-------0-------0-------0--|------0-------0------------------|
A |---------------------------------|---------------------------------|
D |--0-------0-------0-------0------|--0-------0----------------------|


d |-------12+----------------------|---------------12+--------------------|
A |-12+-------------7+-------------|-12+--------------7+-12+--------------|
F#|---0---------------0---7+-------|---0---12+--------------7+-12+--------|
D |-----0-------0-------0-------0--|-----0-------0----------------7+-12+--|
A |--------------------------------|------------------------------------7+|
D |-0-------0-------0-------0------|-0-------0----------------------------|


d |--7+----12+--|
A |----7+-------|
F#|------7+-----|
D |-------------|
A |-------------|
D |-------------|


d |--------0---------------0--------|--------0---------------0--------|
A |--0---------------0--------------|--0---------------0--------------|
F#|----5-------5-------5------------|----3-------3-------7-------7----|
D |------0-------0-------0-------0--|------0-------0-------0-------0--|
A |---------------------------------|---------------------------------|
D |--5-------5-------5-------5------|--4-------4-----/-7-------7------|


d |--------0---------------0--------|--------0------------------------|
A |--0---------------0--------------|--0-------------0----------------|
F#|----5-------5-------5------------|----10------10-------------------|
D |------0-------0-------0-------0--|------0-------0-------0-------0--|
A |---------------------------------|---------------------------------|
D |--5-------5-------5-------5------|-/9-------9-------9-------9------|


d |--------0------------------------|--------0------------------------5+-|
A |--0-------------0----------------|--0-------------0----------------5+-|
F#|----2-------2--------------------|----2-------2--------------------5+-|
D |------0-------0-------0-------0--|------0-------0-------0----------5+-|
A |---------------------------------|------------------------------------|
D |-\2-------2-------2-------2------|--2-------2-------2-------4-\-2-----|





****************************************************************
References for the song:
August Oster on Facebook:
https://www.facebook.com/AugustOstermusicandart
August Oster on icompositions:
http://www.icompositions.com/artists/August_Oster/
August Oster on Soundcloud:
https://soundcloud.com/august-oster
August Oster on YouTube:
https://www.youtube.com/channel/UChacbzLpuUUVIod_Z01Gy5g
****************************************************************
Добавлено: 21.08.2013
Другие материалы по этой песне:
  • Аккорды и текст

Страница создана 21.08.2013
http://primanota.ru/misc-unsigned-bands/august-oster-folk-fortress-chords.htm
Привет, Гость.
Предлагаем пройти революционный курс по гитаре.
Подарок от PrimaNota.Ru, забирай!