PrimaNota.ru - самый крупный в мире бесплатный архив песенных текстов, аккордов, табулатур и нот


Misc Unsigned Bands - August Oster - Old Whiskers - таба

Регистрация Запомнить меня
Войти через:  Facebook Google Twitter Vk Yandex Mail.ru

Misc Unsigned Bands - August Oster - Old Whiskers - таба

Печатать
Просмотров: 33
-----------------------------------------------------------------------------
                          Old Whiskers - August Oster
-----------------------------------------------------------------------------

Tabbed by: August Oster
Email: osterhoutben@gmail.com

Tuning: Open D (DADF#AD)

*********************
Legend
/ = slide up
\ = slide down
b = bend
+ = harmonic
*********************

*note - the rhythm of the song is done with a bounce.  Links are at the
end of the tab for song reference.


d |--7------\5-------4-----4-2---0--|--7------\5-------4-----4-2---0--|
A |----0-------0-------0------------|----0-------0-------0------------|
F#|------7--\----5-------3----------|------7--\----5-------3----------|
D |------------------------------0--|------------------------------0--|
A |---------------------------------|---------------------------------|
D |--0---------------0-------0------|--0---------------0-------0------|


d |--12+----------------------------|--7+-----------------------------|
A |--12+----------------------------|--7+-----------------------------|
F#|---------------------------------|---------------------------------|
D |------0-------0-------0-------0--|------0-------0-------0-------0--|
A |---------------------------------|---------------------------------|
D |--0-------0-------0-------0------|--0-------0-------0-------0------|


d |--12+----------------------------|--9-7--7--7--7--7-9-7--7--7--7--7|
A |--12+----------------------------|---------------------------------|
F#|---------------------------------|---------------------------------|
D |------0-------0-------0-------0--|----0--0--0--0--0---0--0--0--0--0|
A |---------------------------------|---------------------------------|
D |--0-------0-------0-------0------|--0---------------0--------------|


d |--9--7--7-9--7--7-9--7--7-9--7--7|--9/12----------------7--|
A |---------------------------------|-------------------------|
F#|---------------------------------|-------------------------|
D |-----0--0----0--0----0--0----0--0|------0-------0-------0--|
A |---------------------------------|-------------------------|
D |--0-------0-------0-------0------|--0-------0-------0------|


d |--9--7--7-9/12---------------------------|
A |-----------------------------------------|
F#|-----------------------------------------|
D |-----0--0-----0-------0-------0-------0--|
A |-----------------------------------------|
D |--0-------0-------0-------0-------0------|


d |--9-7--7--7--7--7-9-7--7--7--7--7|
A |---------------------------------|
F#|---------------------------------|
D |----0--0--0--0--0---0--0--0--0--0|
A |---------------------------------|
D |--0---------------0--------------|


d |--9--7--7-9--7--7-9--7--7-9--7--7|--9/12----------------7--|
A |---------------------------------|-------------------------|
F#|---------------------------------|-------------------------|
D |-----0--0----0--0----0--0----0--0|------0-------0-------0--|
A |---------------------------------|-------------------------|
D |--0-------0-------0-------0------|--0-------0-------0------|


d |--9--7--7-9/12---------------------------|
A |-----------------------------------------|
F#|-----------------------------------------|
D |-----0--0-----0-------0-------0-------0--|
A |-----------------------------------------|
D |--0-------0-------0-------0-------0------|


d |------12--11--9-\-7--------------|---------------------------------|
A |----------------------9---7-\-5--|---------------------------------|
F#|---------------------------------|--7b-----------------------------|
D |------0-------0-------0-------0--|------0-------0-------0-------0--|
A |---------------------------------|---------------------------------|
D |--0-------0-------0-------0------|----------0-------0-------0------|


d |------12--11--9-\-7--------------|---------------------------------|
A |----------------------9---7-\-5--|---------------------------------|
F#|---------------------------------|--7b-----------------------------|
D |------0-------0-------0-------0--|------0-------0-------0-------0--|
A |---------------------------------|---------------------------------|
D |--0-------0-------0-------0------|----------0-------0-------0------|


d |---------------------------------|---------------------------------|
A |--------5-----------------------7|------------------------5--------|
F#|----0-----------------------0----|--------------------0------------|
D |------5-------0-------0-------5--|------0-------0-------5-------0--|
A |---------------------------------|---------------------------------|
D |--0-------0-------0-------0------|--0-------0-------0-------0------|


d |-------------------------|
A |-------------------------|
F#|-------------------------|
D |------0-------0-------0--|
A |-------------------------|
D |--0-------0-------0------|


d |---------------------------------|---------------------------------|
A |---------------------------------|---------------------------------|
F#|---------------------------------|---------------------------------|
D |------7b-------------------------|------7b-------------------------|
A |------0-------0-------0-------0--|------0-------0-------0-------0--|
D |--0-------0-------0-------0------|--0-------0-------0-------0------|


d |-------------------------------|--------------------------------------|
A |-------------------------------|--------------------------------------|
F#|-------------------------------|--------------------------------------|
D |------7b------7b-7b---7b-7b--7b|--7b-7b-7b-7b-7b-7b-7b-7b-7b-7b-7b-7b-|
A |------0------------------------|--------------------------------------|
D |--0-------0--------------------|--------------------------------------|


d |------------------5--7--|
A |----------5--7--9-------|
F#|--5--7--8---------------|
D |----------0--0--0----0--|
A |------------------------|
D |--0--0--0---------0-----|


d |--9-7--7--7--7--7-9-7--7--7--7--7|
A |---------------------------------|
F#|---------------------------------|
D |----0--0--0--0--0---0--0--0--0--0|
A |---------------------------------|
D |--0---------------0--------------|


d |--9--7--7-9--7--7-9--7--7-9--7--7|--9/12----------------7--|
A |---------------------------------|-------------------------|
F#|---------------------------------|-------------------------|
D |-----0--0----0--0----0--0----0--0|------0-------0-------0--|
A |---------------------------------|-------------------------|
D |--0-------0-------0-------0------|--0-------0-------0------|


d |--9--7--7-9/12---------------------------|
A |-----------------------------------------|
F#|-----------------------------------------|
D |-----0--0-----0-------0-------0-------0--|
A |-----------------------------------------|
D |--0-------0-------0-------0-------0------|


d |--9-7--7--7--7--7-9-7--7--7--7--7|
A |---------------------------------|
F#|---------------------------------|
D |----0--0--0--0--0---0--0--0--0--0|
A |---------------------------------|
D |--0---------------0--------------|


d |--9--7--7-9--7--7-9--7--7-9--7--7|--9/12----------------7--|
A |---------------------------------|-------------------------|
F#|---------------------------------|-------------------------|
D |-----0--0----0--0----0--0----0--0|------0-------0-------0--|
A |---------------------------------|-------------------------|
D |--0-------0-------0-------0------|--0-------0-------0------|


d |--9--7--7-9/12---------------------------|
A |-----------------------------------------|
F#|-----------------------------------------|
D |-----0--0-----0-------0-------0-------0--|
A |-----------------------------------------|
D |--0-------0-------0-------0-------0------|


d |------12--11--9-\-7--------------|---------------------------------|
A |----------------------9---7-\-5--|---------------------------------|
F#|---------------------------------|--7b-----------------------------|
D |------0-------0-------0-------0--|------0-------0-------0-------0--|
A |---------------------------------|---------------------------------|
D |--0-------0-------0-------0------|----------0-------0-------0------|


d |------12--11--9-\-7--------------|---------------------------------|
A |----------------------9---7-\-5--|---------------------------------|
F#|---------------------------------|--7b-----------------------------|
D |------0-------0-------0-------0--|------0-------0-------0-------0--|
A |---------------------------------|---------------------------------|
D |--0-------0-------0-------0------|----------0-------0-------0------|


d |--12+----------------------------|--7+-----------------------------|
A |--12+----------------------------|--7+-----------------------------|
F#|---------------------------------|---------------------------------|
D |------0-------0-------0-------0--|------0-------0-------0-------0--|
A |---------------------------------|---------------------------------|
D |--0-------0-------0-------0------|--0-------0-------0-------0------|


d |--12+----------------------------|---------------------------------|
A |--12+----------------------------|--------5\------4\------2-------0|
F#|---------------------------------|----0-------0-------0-------0----|
D |------0-------0-------0-------0--|------0-------0-------0-------0--|
A |---------------------------------|--5------\4------\2-------0------|
D |--0-------0-------0-------0------|---------------------------------|


d |---------------------------------|---------------------------------|
A |--------5/------7-9-\-7-\-5-\-4--|--------5\------4\------2-------0|
F#|----0-------0-----0---0---0---0--|----0-------0-------0-------0----|
D |------5--/----7------------------|------0-------0-------0-------0--|
A |---------------------------------|--5------\4------\2-------0------|
D |--5------/7-------9-\-7-\-5-\-4--|---------------------------------|


d |---------------------------------|---------------------------------|
A |--------5/------7-9-\-7-\-5-\-4--|--0------------------------------|
F#|----0-------0-----0---0---0---0--|--0------------------------------|
D |------5--/----7------------------|---------------------------------|
A |---------------------------------|---------------------------------|
D |--5------/7-------9-\-7-\-5-\-4--|--0-------0-------0-------0------|


d |------7---9---9b----7------------|--------------7---9---9b----7----|
A |------------------------9---7-\-5|----7---------------------------9|
F#|---------------------------------|---------------------------------|
D |------0-------0-------0-------0--|------0-------0-------0-------0--|
A |---------------------------------|---------------------------------|
D |--0-------0-------0-------0------|--0-------0-------0-------0------|


d |-----------------|------7---9---9b----7------------|
A |----7-\-12-------|------------------------9---7-\-5|
F#|-----------------|---------------------------------|
D |------0-------0--|------0-------0-------0-------0--|
A |-----------------|---------------------------------|
D |--0-------0------|--0-------0-------0-------0------|


d |---------------------------------|-------------------------|
A |----7----------------------------|-------------------------|
F#|---------------------------------|-------------------------|
D |------0-------5-------4---/---7--|------0------------------|
A |---------------------------------|-------------------------|
D |--0-------0-------0-------0------|--0-------0-------0------|


d |------7---9---9b----7------------|--------------7---9---9b----7----|
A |------------------------9---7-\-5|----7---------------------------9|
F#|---------------------------------|---------------------------------|
D |------0-------0-------0-------0--|------0-------0-------0-------0--|
A |---------------------------------|---------------------------------|
D |--0-------0-------0-------0------|--0-------0-------0-------0------|


d |-----------------|------7---9---9b----7------------|
A |----7-\-12-------|------------------------9---7-\-5|
F#|-----------------|---------------------------------|
D |------0-------0--|------0-------0-------0-------0--|
A |-----------------|---------------------------------|
D |--0-------0------|--0-------0-------0-------0------|


d |---------------------------------|-------------------------|
A |----7----------------------------|-------------------------|
F#|---------------------------------|-------------------------|
D |------0-------5-------4---/---7--|------0------------------|
A |---------------------------------|-------------------------|
D |--0-------0-------0-------0------|--0-------0-------0------|


d |----------------0-------------0--|----------------0-------------0--|
A |------7b-------------------------|------7b-------------------------|
F#|------------0-----------0--------|------------0-----------0--------|
D |------7b------7-----7-------7----|------7b------7-----7-------7----|
A |----------------------0------0---|----------------------0------0---|
D |--0-------0-------0-------0-----0|--0-------0-------0-------0-----0|


d |----------------0-------------0--|----------------0-------------0--|
A |------5b-------------------------|------5b-------------------------|
F#|------------0-----------0--------|------------0-----------0--------|
D |------5b------5-----5-------5----|------5b------5-----5-------5----|
A |----------------------0------0---|----------------------0------0---|
D |--0-------0-------0-------0-----0|--0-------0-------0-------0-----0|


d |---------------------------------|---------------------------------|
A |------4-------2-------0----------|------4-------2-------0----------|
F#|---------------------------------|---------------------------------|
D |------4-------2-------0----------|------4-------2-------0----------|
A |---------------------------------|---------------------------------|
D |--0-------0-------0-------0---0--|--0-------0-------0-------0---0--|


d |--12+----------------------------|--7+-----------------------------|
A |--12+----------------------------|--7+-----------------------------|
F#|---------------------------------|---------------------------------|
D |------0-------0-------0-------0--|------0-------0-------0-------0--|
A |---------------------------------|---------------------------------|
D |--0-------0-------0-------0------|--0-------0-------0-------0------|


d |--12+----------------------------|--9-7--7--7--7--7-9-7--7--7--7--7|
A |--12+----------------------------|---------------------------------|
F#|---------------------------------|---------------------------------|
D |------0-------0-------0-------0--|----0--0--0--0--0---0--0--0--0--0|
A |---------------------------------|---------------------------------|
D |--0-------0-------0-------0------|--0---------------0--------------|


d |--9--7--7-9--7--7-9--7--7-9--7--7|--9/12----------------7--|
A |---------------------------------|-------------------------|
F#|---------------------------------|-------------------------|
D |-----0--0----0--0----0--0----0--0|------0-------0-------0--|
A |---------------------------------|-------------------------|
D |--0-------0-------0-------0------|--0-------0-------0------|


d |--9--7--7-9/12---------------------------|
A |-----------------------------------------|
F#|-----------------------------------------|
D |-----0--0-----0-------0-------0-------0--|
A |-----------------------------------------|
D |--0-------0-------0-------0-------0------|


d |--9-7--7--7--7--7-9-7--7--7--7--7|
A |---------------------------------|
F#|---------------------------------|
D |----0--0--0--0--0---0--0--0--0--0|
A |---------------------------------|
D |--0---------------0--------------|


d |--9--7--7-9--7--7-9--7--7-9--7--7|--9/12----------------7--|
A |---------------------------------|-------------------------|
F#|---------------------------------|-------------------------|
D |-----0--0----0--0----0--0----0--0|------0-------0-------0--|
A |---------------------------------|-------------------------|
D |--0-------0-------0-------0------|--0-------0-------0------|


d |--9--7--7-9/12---------------------------|
A |-----------------------------------------|
F#|-----------------------------------------|
D |-----0--0-----0-------0-------0-------0--|
A |-----------------------------------------|
D |--0-------0-------0-------0-------0------|


d |------12--11--9-\-7--------------|---------------------------------|
A |----------------------9---7-\-5--|---------------------------------|
F#|---------------------------------|--7b-----------------------------|
D |------0-------0-------0-------0--|------0-------0-------0-------0--|
A |---------------------------------|---------------------------------|
D |--0-------0-------0-------0------|----------0-------0-------0------|


d |------12--11--9-\-7--------------|---------------------------------|
A |----------------------9---7-\-5--|---------------------------------|
F#|---------------------------------|--7b-----------------------------|
D |------0-------0-------0-------0--|------0-------0-------0-------0--|
A |---------------------------------|---------------------------------|
D |--0-------0-------0-------0------|----------0-------0-------0------|


d |---------------------------------|---------------------------|
A |--------5-----------------------7|------------------------5--|
F#|----0-----------------------0----|--------------------0------|
D |------5-------0-------0-------5--|------0-------0-------5----|
A |---------------------------------|---------------------------|
D |--0-------0-------0-------0------|--0-------0-------0--------|





***************************************************************
References for the song:
August Oster on Facebook:
https://www.facebook.com/AugustOstermusicandart
August Oster on icompositions:
http://www.icompositions.com/artists/August_Oster/
August Oster on Soundcloud:
https://soundcloud.com/august-oster
August Oster on YouTube:
https://www.youtube.com/channel/UChacbzLpuUUVIod_Z01Gy5g
***************************************************************
Добавлено: 12.08.2013
Другие материалы по этой песне:
  • Аккорды и текст

Страница создана 12.08.2013
http://primanota.ru/misc-unsigned-bands/august-oster-old-whiskers-chords.htm
Привет, Гость.
Предлагаем пройти революционный курс по гитаре.
Подарок от PrimaNota.Ru, забирай!