PrimaNota.ru - самый крупный в мире бесплатный архив песенных текстов, аккордов, табулатур и нот


Misc Unsigned Bands - August Oster - Stray Mutt - таба

Регистрация Запомнить меня
Войти через:  Facebook Google Twitter Vk Yandex Mail.ru

Misc Unsigned Bands - August Oster - Stray Mutt - таба

Печатать
Просмотров: 50
-----------------------------------------------------------------------------
                           Stray Mutt - August Oster
-----------------------------------------------------------------------------

Tabbed by: August Oster
Email: osterhoutben@gmail.om

Tuning: Open D (DADF#AD)

*****************************************
Legend
h = hammer on
p = pull off
/ = slide up
\ = slide down
b = bend
x = muted string
<> = artificial harmonic
p^ = pluck/pull string with fret hand
*****************************************


*note*
-  I couldn't find a tab symbol for one of the techniques in this song
so I came up with one.  The p^, represents plucking the string with the 
fret hand.  It will always be accompanied by a hammer on from 
nowhere in this piece,so after hammering on, pull the string to the side 
and release it to play another note.
Similar to the pull off, after the p^, it will indicate what note is 
being played by that action. All done with fret hand.  Reference the 
video if this doesn't make sense. Links to find the video are listed at 
the end of the tab.
-  The timing in the piece can be strange in certain parts.  Refer to 
recording.




d |------9--/--10---\9----\7----/9--|---------------------------------|
A |---------------------------------|------9----/10---\9----\7----\5--|
F#|---------------------------------|---------------------------------|
D |------0-------0-------0-------0--|------9----/--10-\----9\-----\5--|
A |---------------------------------|---------------------------------|
D |--9------/10-----\9----\--7--/---|--0-------0-------0-------0------|


d |------9--/--10---\9----\7----/9--|---------------------------------|
A |---------------------------------|------9----/10---\9----\7----\5--|
F#|---------------------------------|---------------------------------|
D |------0-------0-------0-------0--|------9----/--10-\----9\-----\5--|
A |---------------------------------|---------------------------------|
D |--9------/10-----\9----\--7--/---|--0-------0-------0-------0------|


d |---------------------------------|
A |-\2-----2-----2-----2---2---2---2|
F#|---------------------------------|
D |------0-------0-------0-------0--|
A |---------------------------------|
D |--0-------0-------0-------0------|


d |---------------------------------|---------------------------------|
A |------2--------------------------|------2/7-------7b--5------------|
F#|---------------------------------|------------0-----------7---5-\-3|
D |------0-------0-------0-------0--|------0-------0-------0-------0--|
A |---------------------------------|---------------------------------|
D |--0-------0-------0-------0------|--0-------0-------0-------0------|


d |---------------------------------|---------------------------------|
A |---------------------------------|------2/7-------7b--5------------|
F#|----0----------------------------|------------0-----------7---5-\-3|
D |------0-------0-------0-------0--|------0-------0-------0-------0--|
A |---------------------------------|---------------------------------|
D |--0-------0-------0-------0------|--0-------0-------0-------0------|


d |---------------------------------|
A |---------------------------------|
F#|----0----------------------------|
D |------0-------0-------0-------0--|
A |---------------------------------|
D |--0-------0-------0-------0------|


d |---------------------------------|---------------------------------|
A |----------------7---5---4---0----|---------------------------------|
F#|----7---5---7--------------------|----7---5---7-\-3----------------|
D |------0-------0-------0-------0--|------0-------0-------0-------0--|
A |---------------------------------|---------------------------------|
D |--0-------0-------0-------0------|--0-------0-------0-------0------|


d |---------------------------------|---------------------------------|
A |----------------7---5---4---0----|---------------------------------|
F#|----7---5---7--------------------|----7---5---7-/-12--12--12--12-12|
D |------0-------0-------0-------0--|------0-------0-------0-------0--|
A |---------------------------------|---------------------------------|
D |--0-------0-------0-------0------|--0-------0-------0-------0------|


d |---------------------------------|---------------------------------|
A |----------------7---5---4---0----|---------------------------------|
F#|----7---5---7--------------------|----7---5---7-\-3----------------|
D |------0-------0-------0-------0--|------0-------0-------0-------0--|
A |---------------------------------|---------------------------------|
D |--0-------0-------0-------0------|--0-------0-------0-------0------|


d |----------------0---------------0|----------------0---------------0|
A |------5/7-------------7/9--------|------9/12------------2/5--------|
F#|------------0---------------0----|------------0---------------0----|
D |------5/7-----7-------7/9-----9--|------9/12----12--------------0--|
A |---------------------------------|----------------------2/5--------|
D |--0-------0-------0-------0------|--0-------0-------0-------0------|


d |----------------0---------------0|----------------0----------------|
A |------5/7-------------7/9--------|------9/12-----------12/17-----17|
F#|------------0---------------0----|------------0---------------0----|
D |--------------0---------------0--|--------------0---------------0--|
A |------5/7-------------7/9--------|------9/12-----------12/17-------|
D |--0-------0-------0-------0------|--0-------0-------0-------0------|


d |--------0---------------0---------|--------0-------0--------0|
A |----------------17--------------17|--------------------------|
F#|----0-------0-------0-------0-----|----0-------0--------0----|
D |------0-------0-------0-------0---|------0-------0--------0--|
A |--17--------------17--------------|--17----------------------|
D |----------0---------------0-------|----------0--------0------|


d |------------------------------|------------------------------|
A |------------------------------|------------------------------|
F#|------------------------------|------------------------------|
D |------------------0--------0--|------------------0--------0--|
A |------------------------------|------------------------------|
D |--0---0---0---2/5-----5b-5----|--0---0---0---2/5-----5b-5----|


d |------------------------------|
A |------------------------------|
F#|------------------------------|
D |------------------0--------0--|
A |------------------------------|
D |--0---0---0---2/5-----5b-5----|

            ...Tap on guitar after muted strum|
d |---------------------------------|--x------|
A |---------------------------------|--x---T--|
F#|---------------------------------|--x---A--|
D |---------------7--7--7--7--7--7--|--x---P--|
A |---------------0--0--0--0--0--0--|--x------|
D |--5---5---5/7--7--7--7--7--7--7--|--x------|


d |-<7>-------------<12>-------------|------------------<12>-------------|
A |----------------------------------|-<12>------------------------------|
F#|----------------------------------|-----------------------------------|
D |----h5p^0---h5p^0----h5p^0---h5p^0|-----h5p^0---h5p^0----h5p^0---h5p^0|
A |----------------------------------|-----------------------------------|
D |----------0----------------0------|-----------0----------------0------|


d |-<7>-------------<12>-------------|-<5>-----------------------------|
A |----------------------------------|---------------------------------|
F#|----------------------------------|---------------------------------|
D |----h5p^0---h5p^0----h5p^0---h5p^0|----h5p^0---h5p^0---h5p^0---h5p^0|
A |----------------------------------|---------------------------------|
D |----------0----------------0------|----------0-------0-------0------|


d |-<7>-------------<12>-------------|------------------<12>-------------|
A |----------------------------------|-<12>------------------------------|
F#|----------------------------------|-----------------------------------|
D |----h5p^0---h5p^0----h5p^0---h5p^0|-----h5p^0---h5p^0----h5p^0---h5p^0|
A |----------------------------------|-----------------------------------|
D |----------0----------------0------|-----------0----------------0------|


d |-<7>-------------<12>-------------|----------------------------------|
A |----------------------------------|-<12>-----------------------------|
F#|----------------------------------|----------------------------------|
D |----h5p^0---h5p^0----h5p^0---h5p^0|-----h5p^0---h5p^0---h5p^0---h5p^0|
A |----------------------------------|----------------------------------|
D |----------0----------------0------|-----------0-------0-------0------|


d |-<7>-------------<12>-------------|------------------<12>-------------|
A |----------------------------------|-<12>------------------------------|
F#|----------------------------------|-----------------------------------|
D |----h5p^0---h5p^0----h5p^0---h5p^0|-----h5p^0---h5p^0----h5p^0---h5p^0|
A |----------------------------------|-----------------------------------|
D |----------0----------------0------|-----------0----------------0------|


d |-<7>-------------<12>-------------|-<5>-----------------------------|
A |----------------------------------|---------------------------------|
F#|----------------------------------|---------------------------------|
D |----h5p^0---h5p^0----h5p^0---h5p^0|----h5p^0---h5p^0---h5p^0---h5p^0|
A |----------------------------------|---------------------------------|
D |----------0----------------0------|----------0-------0-------0------|


d |--------------------------0------|--------------------------0------|
A |----------0----------------------|----------0----------------------|
F#|---------------------------------|---------------------------------|
D |----h5p^0---h5p^0---h5p^0---h5p^0|----h5p^0---h5p^0---h5p^0---h5p^0|
A |------------------0--------------|------------------0--------------|
D |--0------------------------------|--0------------------------------|


d |--------------------------0------|--------------------------0------|
A |----------0----------------------|----------0----------------------|
F#|---------------------------------|---------------------------------|
D |----h5p^0---h5p^0---h5p^0---h5p^0|----h5p^0---h5p^0---h5p^0---h5p^0|
A |------------------0--------------|------------------0--------------|
D |--0------------------------------|--0------------------------------|


d |--------------0-----4-----7-----4|------0--------------------------|
A |------0h5------------------------|--------------7-----4-----5------|
F#|------0--------------------------|---------------------------------|
D |--------------0-------0-------0--|------0-------0-------0-------0--|
A |---------------------------------|---------------------------------|
D |--0-------0-------0-------0------|--0-------0-------0-------0------|


d |---------|
A |---------|
F#|---------|
D |------0--|
A |---------|
D |--0------|


d |--------------0-----4-----7-----4|------0--------------------------|
A |------0h5------------------------|--------------7-----4-----5------|
F#|------0--------------------------|---------------------------------|
D |--------------0-------0-------0--|------0-------0-------0-------0--|
A |---------------------------------|---------------------------------|
D |--0-------0-------0-------0------|--0-------0-------0-------0------|


d |---------|
A |---------|
F#|---------|
D |------0--|
A |---------|
D |--0------|


d |----------------0---------------0|----------------0---------------0|
A |------5/7-------------7/9--------|------9/12------------2/5--------|
F#|------------0---------------0----|------------0---------------0----|
D |------5/7-----7-------7/9-----9--|------9/12----12--------------0--|
A |---------------------------------|----------------------2/5--------|
D |--0-------0-------0-------0------|--0-------0-------0-------0------|


d |----------------0---------------0|----------------0----------------|
A |------5/7-------------7/9--------|------9/12-----------12/17-----17|
F#|------------0---------------0----|------------0---------------0----|
D |--------------0---------------0--|--------------0---------------0--|
A |------5/7-------------7/9--------|------9/12-----------12/17-------|
D |--0-------0-------0-------0------|--0-------0-------0-------0------|


d |--------0---------------0---------|--------0-------0--------0|
A |----------------17--------------17|--------------------------|
F#|----0-------0-------0-------0-----|----0-------0--------0----|
D |------0-------0-------0-------0---|------0-------0--------0--|
A |--17--------------17--------------|--17----------------------|
D |----------0---------------0-------|----------0--------0------|

  ...irregular timing...
d |--------------------------0h2p0--|------------------------------------|
A |--------------0------------------|--------------0------------0h2h4p2p0|
F#|---------------------------------|------------------------------------|
D |------0h2-----2-----2p0---------0|------0h2-----2-----2p0-------------|
A |------0h2--------------2p0-------|------0h2--------------2p0----------|
D |--0-------0-------0-------0------|--0-------0-------0-----------------|


d |--------------------------0h2p0--|-----------------------------------|
A |--------------0------------------|--------------0------------0h2h4/5-|
F#|---------------------------------|-----------------------------------|
D |------0h2-----2-----2p0---------0|------0h2-----2-----2p0------------|
A |------0h2--------------2p0-------|------0h2--------------2p0---------|
D |--0-------0-------0-------0------|--0-------0-------0----------------|

   ....back to normal timing
d |----------------0---------------0|----------------0-------0-------0|
A |--------5---------------5--------|--------5------------------------|
F#|----0-------0-------0-------0----|----0-------0-------0-------0----|
D |------0-------0-------0-------0--|------0-------0-------0-------0--|
A |--5-------0-------4-------0------|---------------------------------|
D |---------------------------------|--5-------4-------0-------0------|


d |----------------0---------------0|----------------0-------0-------0|
A |--------5---------------5--------|--------5------------------------|
F#|----0-------0-------0-------0----|----0-------0-------0-------0----|
D |------0-------0-------0-------0--|------0-------0-------0-------0--|
A |--5-------0-------4-------0------|---------------------------------|
D |---------------------------------|--5-------4-------0-------0------|


d |---------------------------------|---------------------------------|
A |------5/7-7/9--------------------|--9\7-7\5-5\2-------------2/4----|
F#|---------------------------------|---------------------------------|
D |------5/7--/9-9-------9-------9--|---\7-7\5--\2-2-------2----/4-4--|
A |---------------------------------|---------------------------------|
D |--0-------0-------0-------0------|--0-------0-------0-------0------|


d |---------------------------------|---------------------------------|
A |----------0----------------------|--5/7-7/9-9----------------------|
F#|---------------------------------|---------------------------------|
D |------4-------0-------0-------0--|---/7-7/9-----9-------9-------9--|
A |---------------------------------|---------------------------------|
D |--0-------0-------0-------0------|--0-------0-------0-------0------|


d |---------------------------------|--------------------------------|
A |--9\7-7\5-5\2-------------2/4----|---------0----------------------|
F#|---------------------------------|--------------------------------|
D |---\7-7\5--\2-2-------2----/4-4--|-----4-------0-------0-------0--|
A |---------------------------------|--------------------------------|
D |--0-------0-------0-------0------|-0-------0-------0-------0------|


d |---5------4-----2-------0|-----------------|
A |-----0------0-------0----|-----------------|
F#|-------0------0-------0--|-----------------|
D |-------------------------|------0-------0--|
A |-------------------------|-----------------|
D |--5-------4-------2------|--0-------0------|


d |----5-----4-----2------/7--------|----5-----4-----2------/9--------|
A |------5-----4-------2--/----7----|------5-----4-------2--/----9----|
F#|--------0-----0-------0-------0--|--------0-----0-------0-------0--|
D |---------------------------------|---------------------------------|
A |---------------------------------|---------------------------------|
D |--5-------4-------2----/--7------|--5-------4-------2----/--9------|


d |----5-----4----/12------9--------|----5-----4-----2-------0|
A |------5-----4--/---12-------9----|------5-----4-------2----|
F#|--------0-----0-------0-------0--|--------0-----0-------0--|
D |---------------------------------|-------------------------|
A |---------------------------------|-------------------------|
D |--5-------4----/--12------9------|--5-------4-------2------|

   ...irregular timing...
d |--------------------------0h2p0-0|--------------------------0h2p0-0|
A |--------------0-----------------0|--------------0-----------------0|
F#|--------------------------------0|--------------------------------0|
D |------0h2-----2-----2p0---------0|------0h2-----2-----2p0---------0|
A |------0h2--------------2p0------0|------0h2--------------2p0------0|
D |--0-------0-------0-------0-----0|--0-------0-------0-------0-----0|


d |------------------------|---------------------0--|--------0h2p0--|
A |--5-/-7-/-9-/-12--2--0--|--5-/-7-/-9-/-12--2--0--|---------------|
F#|--0---0---0-------0--0--|--0---0---0-------0--0--|---------------|
D |--5-/-7-/-9-/-12--0--0--|--5-/-7-/-9-/-12--0--0--|--2p0----------|
A |--5-/-7-/-9-/-12--2--0--|--5-/-7-/-9-/-12--2--0--|-----2p0-------|
D |--0---0---0-------0--0--|--0---0---0-------0--0--|--------0------|






August Oster on Facebook:
https://www.facebook.com/AugustOstermusicandart
August Oster on icompositions:
http://www.icompositions.com/artists/August_Oster/
August Oster on Soundcloud:
https://soundcloud.com/august-oster
August Oster on YouTube:
https://www.youtube.com/channel/UChacbzLpuUUVIod_Z01Gy5g
Добавлено: 25.09.2013
Другие материалы по этой песне:
  • Аккорды и текст

Страница создана 25.09.2013
http://primanota.ru/misc-unsigned-bands/august-oster-stray-mutt-chords.htm
Привет, Гость.
Предлагаем пройти революционный курс по гитаре.
Подарок от PrimaNota.Ru, забирай!