PrimaNota.ru - самый крупный в мире бесплатный архив песенных текстов, аккордов, табулатур и нот


Misc Unsigned Bands - August Oster - Herding Cats - таба

Регистрация Запомнить меня
Войти через:  Facebook Google Twitter Vk Yandex Mail.ru

Misc Unsigned Bands - August Oster - Herding Cats - таба

Печатать
Просмотров: 69
Уроки эстрадного вокала в Санкт-Петербурге
-----------------------------------------------------------------------------
                         Herding Cats - August Oster
-----------------------------------------------------------------------------

Tabbed by: August Oster
Email: osterhoutben@gmail.com

Tuning: Open D (DADF#AD)

***********************************************
Legend
h = hammer on
p = pull off
/ = slide up
\ = slide down
b = bend
+ = harmonic
~ = tremolo
p^ = pluck/pull string with fret hand
***********************************************

*note*
I couldn't find a tab symbol for one of the techniques in this song
so I came up with one.  The p^, represents plucking the string with the 
fret hand.  It will always be accompanied by a hammer on from 
nowhere in this piece,so after hammering on, pull the string to the side 
and release it to play another note.
Similar to the pull off, after the p^, it will indicate what note is 
being played by that action. All done with fret hand.  Reference the 
video if this doesn't make sense. Links to find the video are listed at 
the end of the tab.




d |--12+--|--0h7h9--------------------------|----------0---------0--|
A |--12+--|--------0h7h9--------------------|------0h3-------0h3----|
F#|--12+--|--------------0h5h7--------------|-----------------------|
D |--12+--|--------------------0h5h7--------|-----------------------|
A |--12+--|--------------------------0h2h4--|-----------------------|
D |--12+--|--0------------------------------|--0h3-------0h3--------|


d |--0h7h9--------------------------|----------0---------0--3-/-5--2--|
A |--------0h7h9--------------------|------0h3-------0h3----3-/-5--2--|
F#|--------------0h5h7--------------|---------------------------------|
D |--------------------0h5h7--------|---------------------------------|
A |--------------------------0h2h4--|---------------------------------|
D |--0------------------------------|--0h3-------0h3--------3-/-5--2--|


d |--0-------0---------0--3-/-5--2--|--0------------------------------|
A |--0---0h3-------0h3----3-/-5--2--|--0------------------------------|
F#|---------------------------------|---------------------------------|
D |---------------------------------|------0-------0-------0-------0--|
A |---------------------------------|---------------------------------|
D |--0h3-------0h3--------3-/-5--2--|--0-------0-------0-------0------|


d |------------------------12--11--9~|---------------------------------|
A |--------------------12------------|---------------------------------|
F#|----7---5---7-/-12----------------|---------------------------------|
D |------0-------0-------0-------0---|------0-------0-------0-------0--|
A |----------------------------------|---------------------------------|
D |--0-------0-------0-------0-------|--0-------0-------0-------0------|


d |------9b----7--------------------|---------------------------------|
A |----------------9---5---7---4-\-2|---------------------------------|
F#|---------------------------------|---------------------------------|
D |------0-------0-------0-------0--|------0-------0-------0-------0--|
A |---------------------------------|---------------------------------|
D |--0-------0-------0-------0------|--0-------0-------0-------0------|


d |------------------------12--11--9~|---------------------------------|
A |--------------------12------------|---------------------------------|
F#|----7---5---7-/-12----------------|---------------------------------|
D |------0-------0-------0-------0---|------0-------0-------0-------0--|
A |----------------------------------|---------------------------------|
D |--0-------0-------0-------0-------|--0-------0-------0-------0------|


d |------9b----7--------------------|---------------------------------|
A |----------------9---5---7---4-\-2|---------------------------------|
F#|---------------------------------|---------------------------------|
D |------0-------0-------0-------0--|------0-------0-------0-------0--|
A |---------------------------------|---------------------------------|
D |--0-------0-------0-------0------|--0-------0-------0-------0------|


d |--4p0--------------5h7-/-9--|--4p0--------------5h7-\-9--|
A |-----2h4-/-7----7p0---------|-----2h4-/-7----7p0---------|
F#|----------------------------|----------------------------|
D |---------0-------------0----|---------0-------------0----|
A |----------------------------|----------------------------|
D |--0-------------0-----------|--0-------------0-----------|


d |--4p0--------------5h7-/-9--|
A |-----2h4-/-7----7p0---------|
F#|----------------------------|
D |---------0-------------0----|
A |----------------------------|
D |--0-------------0-----------|


d |--9---7---5---7---|--9---7---5---7---|--9---7---5-/-7---|
A |--7---9---7---5---|--7---9---7---5---|--9---7---5-/-7---|
F#|------------------|------------------|------------------|
D |----------------0-|----------------0-|------------------|
A |------------------|------------------|------------------|
D |--0---0---0---0---|--0---0---0---0---|--9---7---5-/-7---|


d |--5---4-/-5---4---2---|
A |--5---4-/-5---4---2---|
F#|----------------------|
D |----------------------|
A |----------------------|
D |--5---4-/-5---4---2---|


d |--0-------0---------0--3-/-5--2--|--0-------0---------0--3-/-5--2--|
A |--0---0h3-------0h3----3-/-5--2--|--0---0h3-------0h3----3-/-5--2--|
F#|---------------------------------|---------------------------------|
D |---------------------------------|---------------------------------|
A |---------------------------------|---------------------------------|
D |--0h3-------0h3--------3-/-5--2--|--0h3-------0h3--------3-/-5--2--|

d |--0------------------------------|---------------------------------|
A |--0------------------------------|---------------------------------|
F#|---------------------------------|---------------------------------|
D |----h2p^0---h2p^0---h2p^0---h2p^0|----h2p^0---h2p^0---h2p^0---h2p^0|
A |---------------------------------|---------------------------------|
D |--0-------0-------0-------0------|--0-------0-------0-------0------|


d |---------------------------------|---------------------------------|
A |---------------------------------|---------------------------------|
F#|---------------------------------|---------------------------------|
D |----h2p^0---h2p^0---h2p^0---h2p^0|----h2p^0---h2p^0---h2p^0---h2p^0|
A |---------------------------------|---------------------------------|
D |--0-------0-------0-------0------|--0-------0-------0-------0------|


d |----------0---------------0------|----------0---------------0------|
A |----------0---------------0------|----------0---------------0------|
F#|---------------------------------|---------------------------------|
D |----h2p^0---h2p^0---h2p^0---h2p^0|----h2p^0---h2p^0---h2p^0---h2p^0|
A |---------------------------------|---------------------------------|
D |--0---------------0--------------|--0---------------0--------------|


d |----------0---------------0------|----------0---------------0----|
A |----------0---------------0------|----------0---------------0h2--|
F#|---------------------------------|-------------------------------|
D |----h2p^0---h2p^0---h2p^0---h2p^0|----h2p^0---h2p^0---h2p^0------|
A |---------------------------------|-------------------------------|
D |--0---------------0--------------|--0---------------0------------|


d |--0-----3-/---5-----3-----0------|--0-----3-/---5-----3-----0------|
A |------------------------------0h2|------------------------------0h2|
F#|------------------------------0--|------------------------------0--|
D |------0-------0-------0----------|------0-------0-------0----------|
A |---------------------------------|---------------------------------|
D |--0-------0-------0-------0------|--0-------0-------0-------0------|


d |--0-----3-/---7-----5---3---0----|--0-----3-/---5-----3-----0------|
A |------------------------------0h2|---------------------------------|
F#|------------------------------0--|---------------------------------|
D |------0-------0-------0----------|------0-------0-------0-------0--|
A |---------------------------------|---------------------------------|
D |--0-------0-------0-------0------|--0-------0-------0-------0------|


d |---------|
A |---------|
F#|---------|
D |------0--|
A |---------|
D |--0------|


d |---------------------------------|---------------------------------|
A |--------2/------4/---------------|--------5/-----\5----------------|
F#|----0-------0-----------0-------0|------------------------0-------0|
D |------0-------0-----0-0-----0-0--|----0-0-----0-0-----0-0-----0-0--|
A |--2------/4------/5-------5------|--5------/7----\--5-------5------|
D |---------------------------------|---------------------------------|


d |---------------------------------|---------------------------------|
A |------5-\------\2----------------|--------2/-----/5----------------|
F#|------------0--------------------|----0-------0--------------------|
D |------0-------0-------0-------0--|------0-------0-------0-------0--|
A |--5-----\-4-----\-2-------2------|---------------------------------|
D |---------------------------------|--2------/4----/--5-------5------|


d |--5-/-7---5---4-/-5---|--4---2-/-4---2--|
A |--5-/-7---5---4-/-5---|--4---2-/-4---2--|
F#|----------------------|-----------------|
D |----------------------|-----------------|
A |----------------------|-----------------|
D |--5-/-7---5---4-/-5---|--4---2-/-4---2--|


d |--0-------0---------0--3-/-5--2--|--0-------0---------0--3-/-5--2--|
A |--0---0h3-------0h3----3-/-5--2--|--0---0h3-------0h3----3-/-5--2--|
F#|---------------------------------|---------------------------------|
D |---------------------------------|---------------------------------|
A |---------------------------------|---------------------------------|
D |--0h3-------0h3--------3-/-5--2--|--0h3-------0h3--------3-/-5--2--|


d |--0------------------------------|
A |--0------------------------------|
F#|---------------------------------|
D |------0-------0-------0-------0--|
A |---------------------------------|
D |--0-------0-------0-------0------|


d |------------------------12--11--9~|---------------------------------|
A |--------------------12------------|---------------------------------|
F#|----7---5---7-/-12----------------|---------------------------------|
D |------0-------0-------0-------0---|------0-------0-------0-------0--|
A |----------------------------------|---------------------------------|
D |--0-------0-------0-------0-------|--0-------0-------0-------0------|


d |------9b----7--------------------|---------------------------------|
A |----------------9---5---7---4-\-2|---------------------------------|
F#|---------------------------------|---------------------------------|
D |------0-------0-------0-------0--|------0-------0-------0-------0--|
A |---------------------------------|---------------------------------|
D |--0-------0-------0-------0------|--0-------0-------0-------0------|


d |------------------------12--11--9~|---------------------------------|
A |--------------------12------------|---------------------------------|
F#|----7---5---7-/-12----------------|---------------------------------|
D |------0-------0-------0-------0---|------0-------0-------0-------0--|
A |----------------------------------|---------------------------------|
D |--0-------0-------0-------0-------|--0-------0-------0-------0------|


d |------9b----7--------------------|---------------------------------|
A |----------------9---5---7---4-\-2|---------------------------------|
F#|---------------------------------|---------------------------------|
D |------0-------0-------0-------0--|------0-------0-------0-------0--|
A |---------------------------------|---------------------------------|
D |--0-------0-------0-------0------|--0-------0-------0-------0------|


d |---------------------------------|---------------------------------|
A |--------2/-----/5----------------|--------9\-----\5----------------|
F#|----0-------0--------------------|----0-------0--------------------|
D |------0-------0-------0-------0--|------0-------0-------0-------0--|
A |--2------/4----/--5-------5------|--9------\7----\--5-------5------|
D |---------------------------------|---------------------------------|


d |---------------------------------|---------|
A |--------5/-----/9----------------|------9b-|
F#|----0-------0--------------------|------7b-|
D |------0-------0-------0-------0--|---------|
A |---------------------------------|---------|
D |--5------/7----/--9-------9------|--0------|


d |----------------0----------------|----------------0----------------|
A |------------------------------9b-|------------------------------9b-|
F#|------------------------------7b-|------------------------------7b-|
D |--------0---------------0--------|--------0---------------0--------|
A |----0-0-----0-0-----0-0----------|----0-0-----0-0-----0-0----------|
D |--0-------0-------0-------0------|--0-------0-------0-------0------|


d |----------------0----------------|----------------0----------------|
A |------------------------------9b-|------------------------------9b-|
F#|------------------------------7b-|------------------------------7b-|
D |--------0---------------0--------|--------0---------------0--------|
A |----0-0-----0-0-----0-0----------|----0-0-----0-0-----0-0----------|
D |--0-------0-------0-------0------|--0-------0-------0-------0------|


d |---------------------------------|------------7+--|
A |--------------9b--------------9b-|------------7+--|
F#|--------------7b--------------7b-|------------7+--|
D |--------0---------------0--------|--------0---7+--|
A |----0-0-------------0-0----------|----0-0-----7+--|
D |--0-------0-------0-------0------|--0---------7+--|


d |---------------------------------|---------------------------------|
A |---------------------------------|---------------------------------|
F#|---------------------------------|---------------------------------|
D |----h2p^0---h2p^0---h2p^0---h2p^0|----h2p^0---h2p^0---h2p^0---h2p^0|
A |---------------------------------|---------------------------------|
D |--0-------0-------0-------0------|--0-------0-------0-------0------|


d |---------------------------------|---------------------------------|
A |---------------------------------|---------------------------------|
F#|---------------------------------|---------------------------------|
D |----h2p^0---h2p^0---h2p^0---h2p^0|----h2p^0---h2p^0---h2p^0---h2p^0|
A |---------------------------------|---------------------------------|
D |--0-------0-------0-------0------|--0-------0-------0-------0------|


d |---------------------------------|---------------------------------|
A |---------------------------------|---------------------------------|
F#|---------------------------------|---------------------------------|
D |----h2p^0---h2p^0---h2p^0---h2p^0|----h2p^0---h2p^0---h2p^0---h2p^0|
A |---------------------------------|---------------------------------|
D |--0-------0-------0-------0------|--0-------0-------0-------0------|


d |---------------------------------|---------------------------------|
A |---------------------------------|---------------------------------|
F#|---------------------------------|---------------------------------|
D |----h2p^0---h2p^0---h2p^0---h2p^0|----h2p^0---h2p^0---h2p^0---h2p^0|
A |---------------------------------|---------------------------------|
D |--0-------0-------0-------0------|--0-------0-------0-------0------|


d |----------0---------------0------|----------0---------------0------|
A |----------0---------------0------|----------0---------------0------|
F#|---------------------------------|---------------------------------|
D |----h2p^0---h2p^0---h2p^0---h2p^0|----h2p^0---h2p^0---h2p^0---h2p^0|
A |---------------------------------|---------------------------------|
D |--0---------------0--------------|--0---------------0--------------|


d |----------0---------------0------|----------0---------------0------|
A |----------0---------------0------|----------0---------------0------|
F#|---------------------------------|---------------------------------|
D |----h2p^0---h2p^0---h2p^0---h2p^0|----h2p^0---h2p^0---h2p^0---h2p^0|
A |---------------------------------|---------------------------------|
D |--0---------------0--------------|--0---------------0--------------|


d |----------0---------------0------|----------0---------------0------|
A |----------0---------------0------|----------0---------------0------|
F#|---------------------------------|---------------------------------|
D |----h2p^0---h2p^0---h2p^0---h2p^0|----h2p^0---h2p^0---h2p^0---h2p^0|
A |---------------------------------|---------------------------------|
D |--0---------------0--------------|--0---------------0--------------|


d |----------0---------------0------|----------0---------------0------|
A |----------0---------------0------|----------0---------------0------|
F#|---------------------------------|---------------------------------|
D |----h2p^0---h2p^0---h2p^0---h2p^0|----h2p^0---h2p^0---h2p^0---h2p^0|
A |---------------------------------|---------------------------------|
D |--0---------------0--------------|--0---------------0--------------|


d |----------0----|
A |----------0h2--|
F#|---------------|
D |----h2p^0------|
A |---------------|
D |--0------------|


d |--0-----3-/---5-----3-----0------|--0-----3-/---5-----3-----0------|
A |------------------------------0h2|------------------------------0h2|
F#|------------------------------0--|------------------------------0--|
D |------0-------0-------0----------|------0-------0-------0----------|
A |---------------------------------|---------------------------------|
D |--0-------0-------0-------0------|--0-------0-------0-------0------|


d |--0-----3-/---7-----5---3---0----|--0-----3-/---5-----3-----0------|
A |------------------------------0h2|---------------------------------|
F#|------------------------------0--|---------------------------------|
D |------0-------0-------0----------|------0-------0-------0-------0--|
A |---------------------------------|---------------------------------|
D |--0-------0-------0-------0------|--0-------0-------0-------0------|


d |------------------5---3--|--0--------------|
A |-------------------------|-----------------|
F#|-------------------------|-----------------|
D |------0-------0-------0--|------0-------0--|
A |-------------------------|-----------------|
D |--0-------0-------0------|--0-------0------|


d |----------0---------0--3-/-5--2--|--0-------0---------0--3-/-5--2--0-|
A |------0h3-------0h3----3-/-5--2--|--0---0h3-------0h3----3-/-5--2--0-|
F#|---------------------------------|-----------------------------------|
D |---------------------------------|-----------------------------------|
A |---------------------------------|-----------------------------------|
D |--0h3-------0h3--------3-/-5--2--|--0h3-------0h3--------3-/-5--2--0-|




**************************************************************
References for the song:
August Oster on Facebook:
https://www.facebook.com/AugustOstermusicandart
August Oster on icompositions:
http://www.icompositions.com/artists/August_Oster/
August Oster on Soundcloud:
https://soundcloud.com/august-oster
August Oster on YouTube:
https://www.youtube.com/channel/UChacbzLpuUUVIod_Z01Gy5g
***************************************************************
Добавлено: 13.02.2014
Другие материалы по этой песне:
  • Аккорды и текст

Страница создана 13.02.2014
http://primanota.ru/misc-unsigned-bands/august-oster-herding-cats-chords.htm
Привет, Гость.
Предлагаем пройти революционный курс по гитаре.
Подарок от PrimaNota.Ru, забирай!