PrimaNota.ru - самый крупный в мире бесплатный архив песенных текстов, аккордов, табулатур и нот


Misc Unsigned Bands - August Oster - Ode To Jeffrey - таба

Регистрация Запомнить меня
Войти через:  Facebook Google Twitter Vk Yandex Mail.ru

Misc Unsigned Bands - August Oster - Ode To Jeffrey - таба

Печатать
Просмотров: 39
-----------------------------------------------------------------------------
                         Ode To Jeffrey - August Oster
-----------------------------------------------------------------------------

Tabbed by: August Oster
Email: osterhoutben@gmail.com

Tuning: Open G (DGDGBD)

*******************************
Legend
h = hammer on
p = pull off
/ = slide up
\ = slide down
+ = harmonic
x = open string palm mute
~ = tremolo
********************************

*note*
-There are a lot of pauses and speed variations throughout the song.
I have mentioned some of them in the tab itself, but to get it down
perfectly, reference links to the song at the end of the tab.




 ...harmonics are played very quickly....
d|--12+-----12+-----12+-----12+----|--12+-----12+-----12+-----12+----|
B|----12+-----12+-----12+-----12+--|----12+-----12+-----12+-----12+--|
G|------12+-----12+-----12+-----12+|------12+-----12+-----12+-----12+|
D|---------------------------------|---------------------------------|
G|---------------------------------|---------------------------------|
D|---------------------------------|---------------------------------|


d|--12+-----12+-----12+-----12+----|--12+-----12+-----12+-----12+----|
B|----12+-----12+-----12+-----12+--|----12+-----12+-----12+-----12+--|
G|------12+-----12+-----12+-----12+|------12+-----12+-----12+-----12+|
D|---------------------------------|---------------------------------|
G|---------------------------------|---------------------------------|
D|---------------------------------|---------------------------------|


d|--7+------7+------7+------7+-----|--7+------7+------7+------7+-----|
B|----7+------7+------7+------7+---|----7+------7+------7+------7+---|
G|------7+------7+------7+------7+-|------7+------7+------7+------7+-|
D|---------------------------------|---------------------------------|
G|---------------------------------|---------------------------------|
D|---------------------------------|---------------------------------|


d|--7+------7+------7+------7+-----|--7+------7+------7+------7+-----|
B|----7+------7+------7+------7+---|----7+------7+------7+------7+---|
G|------7+------7+------7+------7+-|------7+------7+------7+------7+-|
D|---------------------------------|---------------------------------|
G|---------------------------------|---------------------------------|
D|---------------------------------|---------------------------------|


d|--12+-----12+-----12+-----12+----|--12+-----12+-----12+-----12+----|
B|----12+-----12+-----12+-----12+--|----12+-----12+-----12+-----12+--|
G|------12+-----12+-----12+-----12+|------12+-----12+-----12+-----12+|
D|---------------------------------|---------------------------------|
G|---------------------------------|---------------------------------|
D|---------------------------------|---------------------------------|

               ...slow down as you come to the end and let last note ring|
d|--12+-----12+-----12+-----12+----|--12+-----12+-----12+-----12+-----12+|
B|----12+-----12+-----12+-----12+--|----12+-----12+-----12+-----12+------|
G|------12+-----12+-----12+-----12+|------12+-----12+-----12+-----12+----|
D|---------------------------------|-------------------------------------|
G|---------------------------------|-------------------------------------|
D|---------------------------------|-------------------------------------|


d|----------------0-------0--|--7p0-----------------------------|--7--5--|
B|-----5/7----------------0--|------5h7-----7p0-----------------|--0--0--|
G|------------0-----------0--|----------0h5-----5h7-----7p0-----|--0--0--|
D|--------------0---------0--|----------------------0h5-----5h7-|--7--7--|
G|-----5/7----------------0--|----------------------------------|--0--0--|
D|--0-------0-------0-----0--|----------------------------------|--0--0--|


d|----------------0-------0--|--5p0-----------------------------|--0-----|
B|-----5/7----------------0--|------3h5-----5p0-----------------|--3--0--|
G|------------0-----------0--|----------0h4-----4h5-----5p0-----|--0--0--|
D|--------------0---------0--|----------------------0h4-----4h5-|--5--5--|
G|-----5/7----------------0--|----------------------------------|--0--0--|
D|--0-------0-------0-----0--|----------------------------------|--0--0--|


d|----------------0----------------|----------------0----------------|
B|-----5/7--------------0----------|-----5/7--------------0----------|
G|------------0--------------------|------------0--------------------|
D|--------------0---------------0--|--------------0---------------0--|
G|-----5/7--------------0----------|-----5/7--------------0----------|
D|--0-------0-------0-------0------|--0-------0-------0-------0------|


d|----------------0----------------|----------------------|
B|-----5/7--------------0----------|------------0---------|
G|------------0--------------------|--------0h5---5-------|
D|--------------0---------------0--|----0h7---------7-\-5~|
G|-----5/7--------------0----------|----------------------|
D|--0-------0-------0-------0------|--0-------------------|

                                     ... second time played is faster|
d|--------------------------------5|--------------------------------5|
B|------------------------0---0-0--|------------------------0---0-0--|
G|----------------0---0-0---0------|----------------0---0-0---0------|
D|--------5---5-5---5--------------|--------5---5-5---5--------------|
G|----0-0---0----------------------|----0-0---0----------------------|
D|--5------------------------------|--5------------------------------|


d|--5-/-7-/-9--|
B|--0---0---0--|
G|--0---0---0--|
D|--5-/-7-/-9--|
G|--0---0---0--|
D|--5-/-7-/-9--|


d|----------------0-------0--|--7p0-----------------------------|--7--5--|
B|-----5/7----------------0--|------5h7-----7p0-----------------|--0--0--|
G|------------0-----------0--|----------0h5-----5h7-----7p0-----|--0--0--|
D|--------------0---------0--|----------------------0h5-----5h7-|--7--7--|
G|-----5/7----------------0--|----------------------------------|--0--0--|
D|--0-------0-------0-----0--|----------------------------------|--0--0--|


d|----------------0-------0--|--5p0-----------------------------|--0-----|
B|-----5/7----------------0--|------3h5-----5p0-----------------|--3--0--|
G|------------0-----------0--|----------0h4-----4h5-----5p0-----|--0--0--|
D|--------------0---------0--|----------------------0h4-----4h5-|--5--5--|
G|-----5/7----------------0--|----------------------------------|--0--0--|
D|--0-------0-------0-----0--|----------------------------------|--0--0--|


d|--9------------------------------|------7----10-/-12---------------|
B|---------------------------------|---------------------------------|
G|---------------------------------|---------------------------------|
D|------x-------x-------x-------x--|------x-------x-------x-------x--|
G|---------------------------------|---------------------------------|
D|--x-------x-------x-------x------|--x-------x-------x-------x------|


d|---------------------------------|---------------------------------|
B|--8------------------------------|------5-----7---8---7---8-/-10---|
G|---------------------------------|---------------------------------|
D|------x-------x-------x-------x--|------x-------x-------x-------x--|
G|---------------------------------|---------------------------------|
D|--x-------x-------x-------x------|--x-------x-------x-------x------|


d|---------------------------------|---------------------------------|
B|---------------------------------|---------------------------------|
G|------7--------------------------|------5--------------------------|
D|------x-------x-------x-------x--|------x-------x-------x-------x--|
G|---------------------------------|---------------------------------|
D|--x-------x-------x-------x------|--x-------x-------x-------x------|


d|---------------------------------|---------------------------------|
B|---------------------------------|---------------------------------|
G|----4---2---0---5---4---2---0----|----4---2---0---5---4---2---0----|
D|------0-------0-------0-------0--|------0-------0-------0-------0--|
G|---------------------------------|---------------------------------|
D|--0-------0-------0-------0------|--0-------0-------0-------0------|


d|--9------------------------------|------7----10-/-12---------------|
B|---------------------------------|---------------------------------|
G|---------------------------------|---------------------------------|
D|------x-------x-------x-------x--|------x-------x-------x-------x--|
G|---------------------------------|---------------------------------|
D|--x-------x-------x-------x------|--x-------x-------x-------x------|


d|---------------------------------|---------------------------------|
B|--8------------------------------|------5-----7---8---7---8-/-10---|
G|---------------------------------|---------------------------------|
D|------x-------x-------x-------x--|------x-------x-------x-------x--|
G|---------------------------------|---------------------------------|
D|--x-------x-------x-------x------|--x-------x-------x-------x------|


d|---------------------------------|---------------------------------|
B|---------------------------------|---------------------------------|
G|------7--------------------------|------5--------------------------|
D|------x-------x-------x-------x--|------x-------x-------x-------x--|
G|---------------------------------|---------------------------------|
D|--x-------x-------x-------x------|--x-------x-------x-------x------|


d|---------------------------------|---------------------------------|
B|---------------------------------|---------------------------------|
G|----4---2---0---5---4---2---0----|----4---2---0---5---4---2---0----|
D|------0-------0-------0-------0--|------0-------0-------0-------0--|
G|---------------------------------|---------------------------------|
D|--0-------0-------0-------0------|--0-------0-------0-------0------|


d|---------------------------------|---------------------------------|
B|---------------------------------|---------------------------------|
G|----4---2---0---5---4---2---0----|----4---2---0---5---4---2---0----|
D|------0-------0-------0-------0--|------0-------0-------0-------0--|
G|---------------------------------|---------------------------------|
D|--0-------0-------0-------0------|--0-------0-------0-------0------|


d|--1+--7+--12+------------0--------|--1+--7+--12+------------0--------|
B|--1+--7+--12+--0-----------------0|--1+--7+--12+--0-----------------0|
G|--1+--7+--12+--------0-------0----|--1+--7+--12+--------0-------0----|
D|--1+--7+--12+--0-------0-------0--|--1+--7+--12+--0-------0-------0--|
G|--1+--7+--12+---------------------|--1+--7+--12+---------------------|
D|--1+--7+--12+------0-------0------|--1+--7+--12+------0-------0------|


d|--1+--7+--12+------------0--------|--1+--7+--12+------------0--------|
B|--1+--7+--12+--0-----------------0|--1+--7+--12+--0-----------------0|
G|--1+--7+--12+--------0-------0----|--1+--7+--12+--------0-------0----|
D|--1+--7+--12+--0-------0-------0--|--1+--7+--12+--0-------0-------0--|
G|--1+--7+--12+---------------------|--1+--7+--12+---------------------|
D|--1+--7+--12+------0-------0------|--1+--7+--12+------0-------0------|


d|----------------0----------------|----------------0----------------|
B|-----5/7--------------0----------|-----5/7--------------0----------|
G|------------0--------------------|------------0--------------------|
D|--------------0---------------0--|--------------0---------------0--|
G|-----5/7--------------0----------|-----5/7--------------0----------|
D|--0-------0-------0-------0------|--0-------0-------0-------0------|


d|----------------0----------------|---------|
B|-----5/7--------------0----------|---------|
G|------------0--------------------|---------|
D|--------------0---------------0--|------0--|
G|-----5/7--------------0----------|---------|
D|--0-------0-------0-------0------|--0------|


d|--------9\-----\5-------0--------|------------------------------|
B|----0-------0-------0-------0---0|----0---0---0---0---0---0---0-|
G|------9--\----7\------5-------5--|--5---5---5---5---5---5---5---|
D|---------------------------------|------------------------------|
G|--9------\7----\--5-------5------|------------------------------|
D|---------------------------------|------------------------------|


d|--------9\-----\5-------0--------|------------------------------|
B|----0-------0-------0-------0---0|----0---0---0---0---0---0---0-|
G|------9--\----7\------5-------5--|--5---5---5---5---5---5---5---|
D|---------------------------------|------------------------------|
G|--9------\7----\--5-------5------|------------------------------|
D|---------------------------------|------------------------------|


d|--------9\-----\5-------0--------|-/------9\-----\5-------0--------|
B|----0-------0-------0-------0----|----0-------0-------0-------0----|
G|------9--\----7\------5-------5--|-/----9--\----7\------5-------5--|
D|---------------------------------|---------------------------------|
G|--9------\7----\--5-------5------|-/9------\7----\--5-------5------|
D|---------------------------------|---------------------------------|

                                    ...slow it down....
d|-/------9\-----\5-------0--------|----------------------------5-/-7-|
B|----0-------0-------0-------0---0|----0---0---0---0---0---0---------|
G|-/----9--\----7\------5-------5--|--5---5---5---5---5---5---5---/-7-|
D|---------------------------------|----------------------------------|
G|-/9------\7----\--5-------5------|----------------------------------|
D|---------------------------------|----------------------------------|

  ....slower speed than normal...
d|-/9------------------------------|------7----10-/-12---------------|
B|---------------------------------|---------------------------------|
G|---------------------------------|---------------------------------|
D|------x-------x-------x-------x--|------x-------x-------x-------x--|
G|---------------------------------|---------------------------------|
D|--x-------x-------x-------x------|--x-------x-------x-------x------|


d|---------------------------------|---------------------------------|
B|--8------------------------------|------5-----7---8---7---8-/-10---|
G|---------------------------------|---------------------------------|
D|------x-------x-------x-------x--|------x-------x-------x-------x--|
G|---------------------------------|---------------------------------|
D|--x-------x-------x-------x------|--x-------x-------x-------x------|


d|---------------------------------|---------------------------------|
B|---------------------------------|---------------------------------|
G|------7--------------------------|------5--------------------------|
D|------x-------x-------x-------x--|------x-------x-------x-------x--|
G|---------------------------------|---------------------------------|
D|--x-------x-------x-------x------|--x-------x-------x-------x------|

 ....back to normal speed...
d|---------------------------------|---------------------------------|
B|---------------------------------|---------------------------------|
G|----4---2---0---5---4---2---0----|----4---2---0---5---4---2---0----|
D|------0-------0-------0-------0--|------0-------0-------0-------0--|
G|---------------------------------|---------------------------------|
D|--0-------0-------0-------0------|--0-------0-------0-------0------|


d|-/9------------------------------|------7----10-/-12---------------|
B|---------------------------------|---------------------------------|
G|---------------------------------|---------------------------------|
D|------x-------x-------x-------x--|------x-------x-------x-------x--|
G|---------------------------------|---------------------------------|
D|--x-------x-------x-------x------|--x-------x-------x-------x------|


d|---------------------------------|---------------------------------|
B|--8------------------------------|------5-----7---8---7---8-/-10---|
G|---------------------------------|---------------------------------|
D|------x-------x-------x-------x--|------x-------x-------x-------x--|
G|---------------------------------|---------------------------------|
D|--x-------x-------x-------x------|--x-------x-------x-------x------|


d|---------------------------------|---------------------------------|
B|---------------------------------|---------------------------------|
G|------7--------------------------|------5--------------------------|
D|------x-------x-------x-------x--|------x-------x-------x-------x--|
G|---------------------------------|---------------------------------|
D|--x-------x-------x-------x------|--x-------x-------x-------x------|


d|---------------------------------|---------------------------------|
B|---------------------------------|---------------------------------|
G|----4---2---0---5---4---2---0----|----4---2---0---5---4---2---0----|
D|------0-------0-------0-------0--|------0-------0-------0-------0--|
G|---------------------------------|---------------------------------|
D|--0-------0-------0-------0------|--0-------0-------0-------0------|


d|---------------------------------|---------------------------------|
B|---------------------------------|---------------------------------|
G|----4---2---0---5---4---2---0----|----4---2---0---5---4---2---0----|
D|------0-------0-------0-------0--|------0-------0-------0-------0--|
G|---------------------------------|---------------------------------|
D|--0-------0-------0-------0------|--0-------0-------0-------0------|


d|---------------------------------|---------------------------------|
B|---------------------------------|---------------------------------|
G|---------------------------------|---------------------------------|
D|------0h5-----5/7-----7-------7--|------0h5-----5/7-----7-------7--|
G|------0h5-----5/7-----7-------7--|------0h5-----5/7-----7-------7--|
D|--0-------0-------0-------0------|--0-------0-------0-------0------|

                                     ...speed up faster and faster...
d|---------------------------------|---------------------------------|
B|---------------------------------|---------------------------------|
G|---------------------------------|---------------------------------|
D|------0h5-----5/7-----7-------7--|----7-------7-------7-------7----|
G|------0h5-----5/7-----7-------7--|-------7-------7-------7-------7-|
D|--0-------0-------0-------0------|--0-------0-------0-------0------|

                               ...slow down to the end...|
d|---------------------------------|---------------------|
B|---------------------------------|---------------------|
G|---------------------------------|---------------------|
D|----7-------7-------7-------7----|----7-------7--------|
G|-------7-------7-------7-------7-|-------7-------7-----|
D|--0-------0-------0-------0------|--0-------0-------0--|





****************************************************************
References for the song:
August Oster on Facebook:
https://www.facebook.com/AugustOstermusicandart
August Oster on icompositions:
http://www.icompositions.com/artists/August_Oster/
August Oster on Soundcloud:
https://soundcloud.com/august-oster
August Oster on YouTube:
https://www.youtube.com/channel/UChacbzLpuUUVIod_Z01Gy5g
****************************************************************
Добавлено: 25.01.2014
Другие материалы по этой песне:
  • Аккорды и текст

Страница создана 25.01.2014
http://primanota.ru/misc-unsigned-bands/august-oster-ode-to-jeffrey-chords.htm
Привет, Гость.
Предлагаем пройти революционный курс по гитаре.
Подарок от PrimaNota.Ru, забирай!