PrimaNota.ru - самый крупный в мире бесплатный архив песенных текстов, аккордов, табулатур и нот


Misc Unsigned Bands - August Oster - Getting Older - таба

Регистрация Запомнить меня
Войти через:  Facebook Google Twitter Vk Yandex Mail.ru

Misc Unsigned Bands - August Oster - Getting Older - таба

Печатать
Просмотров: 33
-----------------------------------------------------------------------------
                         Getting Older - August Oster
-----------------------------------------------------------------------------

Tabbed by: August Oster
Email: osterhoutben@gmail.com

Tuning: Open D (DADF#AD)

********************
Legend
h = hammer on
p = pull off
/ = slide up
\ = slide down
~ = tremolo
********************

*note - to get the timing, reference the song through the links at the
end of the tab



d |---------------------------------|---------------------------------|
A |--------------------------0------|---------------------------------|
F#|--5-------3-------0----------0---|--5-------3-------7-------8------|
D |-----0-------0-------0----------0|-----0-------0-------0-------0---|
A |--------0-------0-------0--------|--------0-------0-------0-------0|
D |--5-------4-------2--------------|--5-------4-------7-------9------|


d |---------------------------------|---------------------------------|
A |--------------------------0------|---------------------------------|
F#|--5-------3-------0----------0---|--5-------3-------7-------8------|
D |-----0-------0-------0----------0|-----0-------0-------0-------0---|
A |--------0-------0-------0--------|--------0-------0-------0-------0|
D |--5-------4-------2--------------|--5-------4-------7-------9------|


d |--0---------------0--------------|--0---------------0--------------|
A |-----0---------------0-----------|-----0---------------0-----------|
F#|--------8-8-------------0-7------|--------7-7-------------0-5------|
D |-------------0---------------0---|-------------0---------------0---|
A |----------------0---------------0|----------------0---------------0|
D |----------9---------------7------|----------7---------------0------|


d |---------------------------------|---------------------------------|
A |------------------0--------------|------4p0-------------5\2--------|
F#|--3-------0----------0-----------|---------------------------------|
D |-----0-------0----------0--------|----------------0---------------0|
A |--------0-------0----------------|------4p0---0-0-------5\2---2-2--|
D |--4-------2---------------0------|--0-------0-------0-------0------|


d |---------------------------------|---------------------------------|
A |------4p0-------------5\2--------|------4p0-------------5\2--------|
F#|---------------------------------|---------------------------------|
D |----------------0---------------0|----------------0---------------0|
A |------4p0---0-0-------5\2---2-2--|------4p0---0-0-------5\2---2-2--|
D |--0-------0-------0-------0------|--0-------0-------0-------0------|


d |---------------------------------|---------|
A |------2/7------------------------|---------|
F#|------------------------0--------|---------|
D |----------------0---------------0|---------|
A |------2/7---7-7-----7-7-----7-7--|---------|
D |--0-------0-------0-------0------|--0---2--|


d |----------------0----------------|---------------------------------|
A |------0---------------0---------0|------0---------------0----------|
F#|------------7---------------5----|---------------------------------|
D |------0-------0-------0-------0--|------0---------0-----0---------0|
A |---------------------------------|------------0-0-------------0-0--|
D |-/7-------7-------5-------5------|--0-------0-------0-------0------|


d |----------------0----------------|---------------------------------|
A |------0---------------0---------0|------0---------------0----------|
F#|------------7---------------5----|---------------------------------|
D |------0-------0-------0-------0--|------0---------0-----0---------0|
A |---------------------------------|------------0-0-------------0-0--|
D |--7-------7-------5-------5------|--0-------0-------0-------0------|


d |---------------------------------|---------------------------------|
A |---------------------------------|------------------------0--------|
F#|------5---------5-----3---------3|------0---------0---------------0|
D |------0-----0-0------------------|------0-----0-------0-------0----|
A |----------------------0-----0-0--|--------------0-------0-------0--|
D |--5-------5-------4-------4------|--2-------2-------2-------2------|


d |---------------------------------|---------------------------------|
A |---------------------------------|---------------------------------|
F#|------5---------5-----3---------3|------7---------8-----8---------5|
D |------0-----0-0------------------|------0-----0---------0-----0----|
A |----------------------0-----0-0--|--------------0---------------0--|
D |-/5-------5-------4-------4------|-/7-------7-------9-------9------|


d |--------------------------------|--------------------------------|---|
A |--------------------------------|-----------------------0--------|---|
F#|-----5---------5-----3---------3|-----0---------0---------------0|---|
D |-----0-----0-0------------------|-----0-----0-------0-------0----|---|
A |---------------------0-----0-0--|-------------0-------0-------0--|---|
D |-5-------5-------4-------4------|-2-------2-------2-------2------|-0-|


d |----------------------0h2h4--|-/7---0---5---0---4---0---0--|
A |----------------0h2h4--------|--0---0---0---2---0---4---0--|
F#|--------------0--------------|--0---0---0---0---0---0---0--|
D |--------0h4h5----------------|--7---0---5---0---4---0---0--|
A |--0h4h5----------------------|--0---0---0---2---0---4---0--|
D |----------------0------------|--0---0---0---0---0---0---0--|


d |4---4---4---4---4---4---4---4--/5--|---5---5---5---5---5---5---5--/7--|
A |--5---5---5---5---5---5---5---5---7|-----7---7---7---7---7---7---7/--9|
F#|-----------------------------------|----------------------------------|
D |-------0-------0-------0-------0---|------0-------0-------0-------0---|
A |-----------------------------------|----------------------------------|
D |---0-------0-------0-------0-------|--0-------0-------0-------0-------|


d |---7---7---7---7---7---7---7--\5--|---5---5---5---5---5---5---5--\4--|
A |-----9---9---9---9---9---9---9\--7|-----7---7---7---7---7---7---7---5|
F#|----------------------------------|----------------------------------|
D |------0-------0-------0-------0---|------0-------0-------0-------0---|
A |----------------------------------|----------------------------------|
D |--0-------0-------0-------0-------|--0-------0-------0-------0-------|


d |---4---4---4---4---4---4---4--/5--|---5---5---5---5---5---5---5--/7--|
A |-----5---5---5---5---5---5---5---7|-----7---7---7---7---7---7---7/--9|
F#|----------------------------------|----------------------------------|
D |----------------------------------|------0-------0-------0-------0---|
A |----------------------------------|----------------------------------|
D |--0-------0-------0-------0-------|--0-------0-------0-------0-------|


d |---7---7---7---7---7---7---7---7--|---7--\5---5--\4---4--\2---2----0---|
A |-----9---9---9---9---9---9---9---9|-----9\--7---7---5---5---4---4--0---|
F#|----------------------------------|------------------------------------|
D |------0-------0-------0-------0---|------0-------0-------0-------0-----|
A |----------------------------------|------------------------------------|
D |--0-------0-------0-------0-------|--0-------0-------0-------0-------0-|


d |----------------------4/7~|----------------------4/5-4\2-0-|
A |--------------5-------0---|--------------5-------0---------|
F#|------7-------0-----------|------7-------0-----------------|
D |------0-------------------|------0-------------------------|
A |--------------------------|--------------------------------|
D |--7-------5-------4-------|--7-------5-------4-------------|


d |----------------------4/7~|----------------------4/5-4\2-0-|
A |--------------5-------0---|--------------5-------0---------|
F#|------7-------0-----------|------7-------0-----------------|
D |------0-------------------|------0-------------------------|
A |--------------------------|--------------------------------|
D |--7-------5-------4-------|--7-------5-------4-------------|


d |---------------------------------|---------------------------------|
A |------4p0-------------5\2--------|------4p0-------------5\2--------|
F#|---------------------------------|---------------------------------|
D |----------------0---------------0|----------------0---------------0|
A |------4p0---0-0-------5\2---2-2--|------4p0---0-0-------5\2---2-2--|
D |--0-------0-------0-------0------|--0-------0-------0-------0------|


d |---------------------------------|
A |------4p0-------------5\2--------|
F#|---------------------------------|
D |----------------0---------------0|
A |------4p0---0-0-------5\2---2-2--|
D |--0-------0-------0-------0------|


d |---------------------------------|---------|
A |------2/7------------------------|---------|
F#|------------------------0--------|---------|
D |----------------0---------------0|---------|
A |------2/7---7-7-----7-7-----7-7--|---------|
D |--0-------0-------0-------0------|--0---2--|


d |----------------0----------------|---------------------------------|
A |------0---------------0---------0|------0---------------0----------|
F#|------------7---------------5----|---------------------------------|
D |------0-------0-------0-------0--|------0---------0-----0---------0|
A |---------------------------------|------------0-0-------------0-0--|
D |-/7-------7-------5-------5------|--0-------0-------0-------0------|


d |----------------0----------------|---------------------------------|
A |------0---------------0---------0|------0---------------0----------|
F#|------------7---------------5----|---------------------------------|
D |------0-------0-------0-------0--|------0---------0-----0---------0|
A |---------------------------------|------------0-0-------------0-0--|
D |--7-------7-------5-------5------|--0-------0-------0-------0------|


d |---------------------------------|---------------------------------|
A |---------------------------------|---------------------------------|
F#|------5---------5-----3---------3|------7---------8-----8---------5|
D |------0-----0-0------------------|------0-----0---------0-----0----|
A |----------------------0-----0-0--|--------------0---------------0--|
D |--5-------5-------4-------4------|-/7-------7-------9-------9------|


d |--------------------------------|--------------------------------|---|
A |--------------------------------|-----------------------0--------|---|
F#|-----5---------5-----3---------3|-----0---------0---------------0|---|
D |-----0-----0-0------------------|-----0-----0-------0-------0----|---|
A |---------------------0-----0-0--|-------------0-------0-------0--|---|
D |-5-------5-------4-------4------|-2-------2-------2-------2------|-0-|





*************************************************************
References for the song:
August Oster on Facebook:
https://www.facebook.com/AugustOstermusicandart
August Oster on icompositions:
http://www.icompositions.com/artists/August_Oster/
August Oster on Soundcloud:
https://soundcloud.com/august-oster
August Oster on YouTube:
https://www.youtube.com/channel/UChacbzLpuUUVIod_Z01Gy5g
*************************************************************
Добавлено: 16.09.2013
Другие материалы по этой песне:
  • Аккорды и текст

Страница создана 16.09.2013
http://primanota.ru/misc-unsigned-bands/august-oster-getting-older-chords.htm
Привет, Гость.
Предлагаем пройти революционный курс по гитаре.
Подарок от PrimaNota.Ru, забирай!