PrimaNota.ru - самый крупный в мире бесплатный архив песенных текстов, аккордов, табулатур и нот


Misc Unsigned Bands - Atrocity - Unholy - таба

Регистрация Запомнить меня
Войти через:  Facebook Google Twitter Vk Yandex Mail.ru

Misc Unsigned Bands - Atrocity - Unholy - таба

Печатать
Просмотров: 25
Atrocity - Unholy
(atrocityca.bandcamp.com)
Tabbed by nathan360, guitarist of Atrocity from Salinas, CA

NOTE: There was no option for Drop G tuning, so the actual tuning is 6 string G D G C E A

Intro riff [0:00-0:19]
A|---------------------------------|
E|---------------------------------|
C|---------------------------------|
G|-0-1-2-0-4-3-0-1-0-3-2-1-3-2-0-1-|
D|-0-1-2-0-4-3-0-1-0-3-2-1-3-2-0-1-|
G|-0-1-2-0-4-3-0-1-0-----1-3-2-0---|
   . . . . . . . . .     . . . .

Start headbanging [0:19-0:36]
A|-----------------------------------------------------------------|
E|-----------------------------------------------------------------|
C|-----------------------------------------------------------------|
G|-0---4---3---2---0---1---3---2--/5---4--\1---0---1---0-1-0-1-3-2-|
D|-0---4---3---2---0---1---3---2--/5---4--\1---0---1---0-1-0-1-3-2-|
G|-0---4---3---2---0---1---3---2--/5---4--\1---0-------------1-3-2-|
   .   .   .   .   .   .   .   .   .   .   .   .             . . 

[0:36-1:01]
A|---------------------------------|-----------------------------------------|
E|---------------------------------|-----------------------------------------|
C|---------------------------------|-----------------------------------------|
G|-5-4-1-----------5-1-0-1/3-0-3-2-|-5-4-1-------------------0-2-3-0---------|
D|-5-4-1-----------5-1-0-1/3-0-3-2-|-5-4-1-----------6-5-----0-2-3-0---------|
G|-5-4-1-0-1-0-5-4---1-0-----0-3-2-|-5-4-1-0-1-0-5-4-----4-3-0-2-3-0---------|
   . . . T T T T T   . .     . . .   . . . T T T T T T T T T   . .

Short transition lick [1:01-1:03]    
A|--------------------|
E|--------------------|
C|--------------------|
G|-1-2-1-3-0----------|
D|-1-2-1-3-0----------|
G|---2-1-3-0----------|
     . . .

[1:03-1:20]
A|---------------------------------|---------------------------------|
E|---------------------------------|---------------------------------|
C|---------------------------------|---------------------------------|
G|-4-3-2-0-3-2-1-0-1-3-1-3-0-1-2-0-|-4-3-2-0-3-2-1-0-1-3-1-3-1-2-1-3-|
D|-4-3-2-0-3-2-1-0-1-3-1-3-0-1-2-0-|-4-3-2-0-3-2-1-0-1-3-1-3-1-2-1-3-|
G|-4-3-2-0-3-2-1-0-1---1-3-0-1-2-0-|-4-3-2-0-3-2-1-0-1---1-3---2-1-3-|
   . . . . . . . . .   . .   . .     . . . . . . . . .   . .   . . 

Ambient section [1:20-1:53]
Lead
A|---------------------------------|-------------------------------------|
E|---------------------------------|-------------------------------------|
C|--------9-10~--------------------|--------9-10v------9v-----/14---13---|
G|-/7------------------------------|-/7----------------------------------|
D|---------------------------------|-------------------------------------|
G|---------------------------------|-------------------------------------|
                                                                         |
Rhythm                                                                   |
A|---------------------------------|-------------------------------------|
E|---------------------------------|-------------------------------------|
C|---------------------------------|-------------------------------------|
G|-1-2-1-3-0~----------------------|-1-2-1-3-0~--------1---------3---4---|
D|-1-2-1-3-0~----------------------|-1-2-1-3-0~--------1---------3---4---|
G|---2-1-3-0~----------------------|---2-1-3-0~--------1---------3---4---|
     . . .                             . . .                     .   .

Intro riff [1:53-2:10]
A|---------------------------------|
E|---------------------------------|
C|---------------------------------|
G|-0-1-2-0-4-3-0-1-0-3-2-1-3-2-0-1-|
D|-0-1-2-0-4-3-0-1-0-3-2-1-3-2-0-1-|
G|-0-1-2-0-4-3-0-1-0-----1-3-2-0---|
   . . . . . . . . .     . . . .

Open G [2:10-2:18]
A|-------------------------------------------------------------------|
E|-------------------------------------------------------------------|
C|-------------------------------------------------------------------|
G|-------------------------------------------------------------------|
D|-------------------------------------------------------------------|
G|-0~----------------------------------------------------------------|

Slow brutal slam buildup [2:18-2:35]
A|---------------------------------|---------------------------------|
E|---------------------------------|---------------------------------|
C|---------------------------------|---------------------------------|
G|-0---1---0-----------------------|-0---1---0-------3---4---1-------|
D|-0---1---0-----------------------|-0---1---0-------3---4---1-------|
G|-0---1---0-----------------------|-0---1---0-------3---4---1-------|
   .   .   .                         .   .   .       .   .   .
A|---------------------------------|---------------------------------|
E|---------------------------------|---------------------------------|
C|---------------------------------|---------------------------------|
G|-0---1---0-----------------------|-0---1---0-------3---4---1-0-1-3-|
D|-0---1---0-----------------------|-0---1---0-------3---4---1-0-1-3-|
G|-0---1---0-----------------------|-0---1---0-------3---4---1-0-1---|
   .   .   .                         .   .   .       .   .   . . .

Slow-slamming brutality [2:35-2:51]
A|---------------------------------|---------------------------------|
E|---------------------------------|---------------------------------|
C|---------------------------------|---------------------------------|
G|-0---1---0-----------------------|-0---1---0-------3---4---1-------|
D|-0---1---0-----------------------|-0---1---0-------3---4---1-------|
G|-0---1---0-----------------------|-0---1---0-------3---4---1-------|
   .   .   .                         .   .   .       .   .   .
A|---------------------------------|---------------------------------|
E|---------------------------------|---------------------------------|
C|---------------------------------|---------------------------------|
G|-0---1---0-----------------------|-0---1---0-------3---4---1-0-1-3-|
D|-0---1---0-----------------------|-0---1---0-------3---4---1-0-1-3-|
G|-0---1---0-----------------------|-0---1---0-------3---4---1-0-1---|
   .   .   .                         .   .   .       .   .   . . .

[2:51-3:13]
A|---------------------------------|---------------------------------|
E|---------------------------------|---------------------------------|
C|---------------------------------|---------------------------------|
G|-0---1---0~----------------------|-0---1---0-------3---4---1-0-1-3-|
D|-0---1---0~----------------------|-0---1---0-------3---4---1-0-1-3-|
G|-0---1---0~----------------------|-0---1---0-------3---4---1-0-1---|
   .   .   .                         .   .   .       .   .   . . .

[END]

------------------------
Legend:
. = palm mute
/ = slide down
\ = slide up
T = tremolo pick
v = vibrato
~ = let ring
Добавлено: 18.04.2016
Другие материалы по этой песне:
  • Аккорды и текст

Страница создана 18.04.2016
http://primanota.ru/misc-unsigned-bands/atrocity-unholy-chords.htm
Привет, Гость.
Предлагаем пройти революционный курс по гитаре.
Подарок от PrimaNota.Ru, забирай!