PrimaNota.ru - самый крупный в мире бесплатный архив песенных текстов, аккордов, табулатур и нот


Misc Unsigned Bands - Bird Brain Mafia - Just A Hit - таба

Регистрация Запомнить меня
Войти через:  Facebook Google Twitter Vk Yandex Mail.ru

Misc Unsigned Bands - Bird Brain Mafia - Just A Hit - таба

Печатать
Просмотров: 20
BIRD BRAIN MAFIA - JUST A HIT

Drop D

. = Palm mute
p = pull off
h = hammer on

Intro part 1

Riff 1

e-----------------------------------|
B-----------------------------------|
G-----------------------------------|
D-----------------------------------|
A--5-5-5-5-5-5-5-5-3-3-3-3-3-3-3-3--|
D--5-5-5-5-5-5-5-5-3-3-3-3-3-3-3-3--| x3

Riff 2

e-----------------------------|
B-----------------------------|
G-----------------------------|
D-----------------------------|
A--5-3-3-3-3-5-3-0-----3-5----|
D--5-3-3-3-3-5-3-0-3-5--------|

Intro part 2

Riff 3

e----------------------------------------------------------|
B----------------------------------------------------------|
G----------------------------------------------------------|
D--------------------------3h5---------------------5p3-----|
A--0-------3h5---0-----3h5-----0-------3h5---0---------5p3-|
D--0-0-0-0-------0-0-0---------0-0-0-0-------0-0-0---------|
     . . .         . ,           . . .         . .
e----------------------------------------------------------|
B----------------------------------------------------------|
G----------------------------------------------------------|
D--------------------------3h5---------------------5p3-----|
A--3-------3h5---3-----3h5-----6-------3h5---5---------5p3-|
D--3-3-3-3-------3-3-3---------6-6-6-6-------5-5-5---------|
     . . .         . .           . . .         . .

Verse 1

Riff 4

e--------------------------------------------------------|
B--------------------------------------------------------|
G--------------------------------------------------------|
D--------------------------------------------------------|
A--0-----------0--------------0-----------0--------------|
D--0-0-0-0-0-0-0--0-0-0-0-0-0-0-0-0-0-0-0-0--0-0-0-0-0-0-|
     . . . . .    . . . . . .   . . . . .    . . . . . .
e--------------------------------------------------------|
B--------------------------------------------------------|
G--------------------------------------------------------|
D--------------------------------------------------------|
A--3-----------3--------------6-----------5--------------|
D--3-3-3-3-3-3-3--3-3-3-3-3-3-6-6-6-6-6-6-5--5-5-5-5-5-5-|
     . . . . .    . . . . . .   . . . . .    . . . . . .

Prechorus

Riff 2
Riff 4
Riff 2

Riff 5

e--------------------------|
B--------------------------|
G--------------------------|
D--------------------------|
A--0-----------0-----------|
D--0-0-0-3p0-0-0-0-0-6-5-3-|
     . .     .   . .

Chorus (swing bit)

Riff 6

e---------------------------|
B---------------------------|
G--6-5-3--------------------|
D--------5-3-5--------------|
A---------------------------|
D--------------5-3-5-0-3-0--| x3

Riff 7

e----------------------------------------------------------------------|
B----------------------------------------------------------------------|
G--6-5-3-------------3-5-6-6-6-6-6-6-6-6-6-6-6-6-6-6-6-6-5-5-5-3-3-3-0-|
D--------5-3-5---------------------------------------------------------|
A----------------------------------------------------------------------|
D--------------5-3-5---------------------------------------------------|

Solo 1

e----------------------------------------------------------------------------------------|
B----------------------------------------------------------------------------------------|
G--0-3-5-6-5-3-0-----3---0-3-5-6-5-3-0-6-5-3---0-3-5-6-5-3-0-----3---0-3-5-6-5-3-0-6-5-3-|
D----------------3-5-----------------------------------------3-5-------------------------|
A----------------------------------------------------------------------------------------|
D----------------------------------------------------------------------------------------|

e-------------------------------------------------------------------|
B-------------------------------------------------------------------|
G-----------------------6-5-3-------3---6-5-3-----------------------|
D---------------3-5-3---------5-3-5-----------5-3-------------------|
A--------0h3--5-----------------------------------5-3---------3-5-5-|
D--0h3h5------------------------------------------------0-3-5-------|

Riff 2
Riff 3

Verse 2

Riff 4 x2

Prechorus

Riff 2
Riff 4
Riff 2
Riff 5

Chorus

Riff 6 (x3 again)
Riff 7

Middle bit

Riff 8

e-----------------------------------------------|
B-----------------------------------------------|
G-----------------------------------------------|
D-----------------------------------------------|
A-----------------------------------------------|
D--5-5-5-5-5-5-5-5-5-5-5-5-5-5-5-5-5-5-3--0--3--| x3
   . . . . . . . . . . . . . . . . . .

Riff 9

e-------------------------------------------------|
B-------------------------------------------------|
G-------------------------------------------------|
D-------------------------------------------------|
A--------------------------------------3----------|
D--5-5-5-5-5-5-5-5-5-5-5-5-5-5-5-5-5-5-3----------|SLIDE
   . . . . . . . . . . . . . . . . . .

Riff 10

e-------------------------------------------------|
B-------------------------------------------------|
G-------------------------------------------------|
D-------------------------------------------------|
A------11-10-8-----8-10-11-----11-10-8-----8-8-8--|
D--0-0---------0-0---------0-0---------0-0--------| x2

Riff 11

e-------------------------------------------|
B-------------------------------------------|
G-------------------------------------------|
D-------------------------------------------|
A-------------------------------------------|
D--0-0-6-5-3-0-0-3-5-6-0-0-6-5-3-0-0-3-3-3--| x2

Solo 2

e-----------------------------------------------------------------------------------------------------|
B-----------------------------------------------------------------------------------------------------|
G--0-0-0-0-0-0-6p0-3p0-----3---0-0-0-0-0-0-6p0-3p0-6-5-3---0-3-5-6-5-3-0-----3---0-3-5-6-5-3-0-6-5-3--|
D----------------------3-5-----------------------------------------------3-5--------------------------|
A-----------------------------------------------------------------------------------------------------|
D-----------------------------------------------------------------------------------------------------|

e-----------------------------------------------------------------------------------|
B-----------------------------------------------------------------------------------|
G--6-5-3-----------6-5-3-------3-----------------3-5-3----------------------3h5p3---|
D--------5-3-------------5-3-5-----------3---3h5-------5---3h5p3p0h3--0h3h5-------5-|
A------------5-3-------------------0h3h5---5----------------------------------------|
D-----------------------------------------------------------------------------------|

e----------------------------------------------------------------------------------|
B----------------------------------------------------------------------------------|
G--------------------0h3h5-6-5-3---6h7p6-5h6p5-3h5p3-0h3p0-------------------------|
D--------------0h3h5---------------------------------------3h5p3-0h3p0-------3h5p3-|
A--------0h3h5---------------------------------------------------------3h5p3-------|
D--0h3h5---------------------------------------------------------------------------|

e----------------------------------------------------------------------------------|
B----------------------------------------------------------------------------------|
G--------------------0h3h5-6-5-3---6h7p6-6h7p6-5h6p5-5h6p5-3h5p3-0h3p0-------0h3p0-|
D--------------0h3h5---------------------------------------------------3h5p3-------|
A--------0h3h5---------------------------------------------------------------------|
D--0h3h5---------------------------------------------------------------------------|

e---------------------------------------|
B---------------------------------------|
G------3-5-3------------------------5h7-|
D--3-5-------5-3---3-5-3--5-3p0-3h5-----|
A---------------------------------------|
D---------------------------------------|

Outro

Riff 4

Riff 12

e---------------------------|
B---------------------------|
G---6-5-3-------------------|
D---------5-3-------------0-|
A-------------5-3-0-------0-|
D-------------------6-5-3-0-|

So structure overall is

Riff 1 x3
Riff 2
Riff 3
Riff 4
Riff 2
Riff 4
Riff 5
Riff 6 x3
Riff 7
Solo 1
Riff 2
Riff 3
Riff 4 x2
Riff 2
Riff 4
Riff 5
Riff 6 x3
Riff 7
Riff 8 x3
Riff 9
Riff 10 x2
Riff 11 x2
Solo 2
Riff 4
Riff 12
Добавлено: 18.04.2016
Другие материалы по этой песне:
  • Аккорды и текст

Страница создана 18.04.2016
http://primanota.ru/misc-unsigned-bands/bird-brain-mafia-just-a-hit-chords.htm
Привет, Гость.
Предлагаем пройти революционный курс по гитаре.
Подарок от PrimaNota.Ru, забирай!