PrimaNota.ru - самый крупный в мире бесплатный архив песенных текстов, аккордов, табулатур и нот


Misc Unsigned Bands - Breakdown Love - Destroyed - таба

Регистрация Запомнить меня
Войти через:  Facebook Google Twitter Vk Yandex Mail.ru

Misc Unsigned Bands - Breakdown Love - Destroyed - таба

Печатать
Просмотров: 40
So, for those of you who are curious about the three guitars and not one being studio only, is because 
BreakDown Love has 3 guitar players. now, if you see a 4th guitar then you will know its a studio only, so 
yeah. Otherwise enjoy. There is no music for this yet but I want to know how you guitar players like this. I 
wrote this whole thing and based it loosely on Breaking Benjamin writing in general, which explains why they 
look the same. Anyway, play it and tell me what you think. I will upload a guitars only video of this song to
My YouTube account (Damon Finegan BreakDown Love) when I get the chance.

Enjoy.

Song: Destroyed
Artist: BreakDown Love
Album: Lights in the Dark Disc I

Tuning: Drop A#
Guitar I: Lead 
Guitar II: Rhythm 
Guitar III: Rhythm 
Key:
h-Hammer-On
p-Pull-Off
v-Vibrato
x-Dead Note
/-Slide
'-Tremolo
~-Hold Note
pm-Palm Mute

Intro:
Part I:
Guitar I:
 C|------4-5~------4/------12-13------------12-13-15~--------|
 G|-4~-5------4~-5---1~-14------14-12-12-14------------------|
D#|----------------------------------------------------------|
A#|----------------------------------------------------------|
 F|--------------------------------------------------x-x-x-x-|
A#|--------------------------------------------------x-x-x-x-|
Guitar II: () Play where shown, [] x2, {} omit 2nd time
 C|--------------------------------------------------------|
 G|--------------------------------------------------------|
D#|--------------------------------------------------------|
A#|--------------------------------------------------------|
 F|-[(---10-9-13-12-)------------()--------------]-x-x-x-x-|
A#|-[(0-0----0-----0)-10-0-10h13-()-{10-0-13p12}-]-x-x-x-x-|
Part II:
All Guitars: () Play where indicated
 C|----------------------------------------------------|
 G|----------------------------------------------------|
D#|----------------------------------------------------|
A#|----------------------------------------------------|
 F|----------------12-0-12h13-------10p9---------------|
A#|-(00-0-000-0000)----------()13p12----()10-0-10h13()-|
pm   .. . ... ....
Part II Cont'd:
 C|-------------------|
 G|-------------------|
D#|-------------------|
A#|-------------1p0h1-|
 F|-------------1p0h1-|
A#|-10-0-13p12()1p0h1-|
Verses: the "3h" note is hammered-on from the "1" note in intro
Guitars I+II
 C|------------------------|
 G|------------------------|
D#|------------------------|
A#|-3h~/7~--5~--10~--x1-x3-|
 F|-3h~/7~--5~--10~--x1-x3-|
A#|-3h~/7~--5~--10~--x1-x3-|
Chorus:
Guitars I+II                         GIII starts
 C|-----------------------------------|----------------------|
 G|-----------------------------------|----------------------|
D#|-----------------------------------V----------------------|
A#|-5--5-5555-55-5-5-0--0-0000-00-0-0-8-88-8~-8/3-33-3~-3/10-|
 F|-5--5-5555-55-5-5-0--0-0000-00-0-0-8-88-8~-8/3-33-3~-3/10-|
A#|-5--5-5555-55-5-5-0--0-0000-00-0-0-8-88-8~-8/3-33-3~-3/10-|
Chorus Cont'd:
All Guitars 
 C|------------------------------------------------|
 G|-------------10-10-10101010-10------------------|
D#|-------------10-10-10101010-10------------------|
A#|-1010-10~-10--8--8--8-8-8-8--8--8--8-888888-888-|
 F|-1010-10~-10--8--8--8-8-8-8--8--7--7-777777-888-|
A#|-1010-10~-10--8--8--8-8-8-8--8--8--8-888888-888-|

Intro
Verse
Chorus

Instrumental Break:
Guitars II+III: () x3, [] Play where indicated
 C|------------------------------------------------------|
 G|------------------------------------------------------|
D#|------------------------------------------------------|
A#|-------------------------[00-0-1-0-000]-10p9-13p12-[]-|
 F|-(------------9-----12-)-[00-0-1-0-000]-10p9-13p12-[]-|
A#|-(00-0-1-0-000-13-12---)-[00-0-1-0-000]-10p9-13p12-[]-|
pm            ...                     ...
Guitar I:
 C|-------------------------------|
 G|-11'-8'-9'-6'-13'-)------------|
D#|--x--x--x--x---x--)------------|
A#|--8'-5'-6'-3'-10'-)------------|
 F|-----------------------5-0-5-8-|
A#|-------------------------------|

Chorus

Outro:
All Guitars
 C|----------------------------------------------|
 G|----------------------------------------------|
D#|----------------------------------------------|
A#|---------------------------------------1p0h1~-|
 F|----------------12-0-12h13-------10p9--1p0h1~-|
A#|-(00-0-000-0000)----------()13p12----()1p0h1~-|
pm   .. . ... ....

END!!!

BASS:

Tuning: Drop A#
Key:
h-Hammer-On
p-Pull-Off
~-Hold Note
x-Mute Note

Intro:
Part I: () Play where shown, [] x2, {} omit 2nd time
D#|----------------------------------------------------------|
A#|----------------------------------------------------------|
 F|-[(---10-9---13-12-)------------()--------------]---------|
A#|-[(0-0-----0------0)-10-0-10h13-()-{10-0-13p12}-]-x-x-x-x-|

Part II: () play where shown
D#|-----------------------------------------------------|
A#|-----------------------------------------------------|
 F|-----------------12-0-12h13-------10p9---------------|
A#|-(00-0-000-0000)-----------()13p12----()10-0-10h13()-|
Part II Cont'd:
D#|--------------------|
A#|--------------------|
 F|--------------------|
A#|-10-0-13p12-()1p0h1-|

Verses: 3h: hammered-on from end of Intro (both verses)
D#|--------------------------|
A#|--------------------------|
 F|--------------------------|
A#|-3h~/7~--5~--10~--x-1-x-3-|

Chorus:
D#|--------------------------------------------------------|
A#|--------------------------------------------------------|
 F|--------------------------------------------------------|
A#|-5-5-5555-55-5-5-0-0-0000-00-0-0-8-88-8~-8/3-33-3~-3/10-|
Chorus Cont'd:
D#|---------------------------------------|
A#|---------------------------------------|
 F|------------------------7--7-77777-888-|
A#|-1010-10~-10-8-8-8888-8----------------|

Intro
Verse
Chorus

Instrumental Break: () Play where showed, [] x3
D#|--------------------------------------------|
A#|--------------------------------------------|
 F|-[--------------9-----12-]------------------|
A#|-[(00-0-1p0-000)-13-12---]-()-10p9-13p12-()-|

Chorus

Outro:
D#|------------------------------------------------|
A#|------------------------------------------------|
 F|-----------------12-0-12h13-------10p9----------|
A#|-(00-0-000-0000)-----------()13p12----()-1p0h1~-|

Добавлено: 18.04.2016
Другие материалы по этой песне:
  • Аккорды и текст

Страница создана 18.04.2016
http://primanota.ru/misc-unsigned-bands/breakdown-love-destroyed-chords.htm
Привет, Гость.
Предлагаем пройти революционный курс по гитаре.
Подарок от PrimaNota.Ru, забирай!