PrimaNota.ru - самый крупный в мире бесплатный архив песенных текстов, аккордов, табулатур и нот


Misc Unsigned Bands - Avis B Christianson - Blessed Redeemer - таба

Регистрация Запомнить меня
Войти через:  Facebook Google Twitter Vk Yandex Mail.ru

Misc Unsigned Bands - Avis B Christianson - Blessed Redeemer - таба

Печатать
Просмотров: 27
Уроки эстрадного вокала в Санкт-Петербурге
-------------------------------------------------------------------------------
                          blessed redeemer - Avis B. christianson
-------------------------------------------------------------------------------
Tabbed by:
E-mail:
key of D
Tuning:E-A-D-G-B-e

e|---------------------------------------------------------------------------|
B|-----------------------------------------------------------------0---------|
G|-2---2---2-----2-------2----0--------------0-----0----0---0------0-2---0---|
D|-4---4---4-----4---4---4----2--4-----2-----2-----2----2---2--2-----4---2---|
A|-------------------5-----------5-----4-----------------------4-------------|
E|---------------------------------------------------------------------------|
  up calvary's mountain one dreadful morn walked christ my savior weary and 
e|---------------------------------------------------------------------------|
B|---------------------------------------0-----3---2---0---------------------|
G|------2--2---2----2------------0--2------------------------2---------2-----|
D|-4----4--4---4----4--2----2------------0-----0---0---0-----0----4----------|
A|-5-------------------4----4----4--4-----------------------------5----4-----|
E|---------------------------------------------------------------------------|
  worn facing for sinners death on the cross that he might save them from 
e|---------------------------------------------------------------------------|
B|---------------------------------------------------------------------------|
G|---------------------------------------------------------------------------|
D|-2--4-----0----------------------------------------------------------------|
A|-4--4----------------------------------------------------------------------|
E|---------------------------------------------------------------------------|
  endless loss
e|---------------------------------------------------------------------------|
B|--------0--0---0--0-----0---0----0-------------------------------2--2--0---|
G|---------------------0--0---0----0--2------2----2--2--2-------2------------|
D|--------0--0---0--0--0--------------4-2----4----4--4--2---2------2--2--0---|
A|--------------------------------------4-------------------4---4------------|
E|---------------------------------------------------------------------------|
chorus: blessed redeemer precious redeemer seems now I see him on calvary's
e|----------------------------------------------------------------------------|
B|------------------------------------------3------3----2---0-----------------|
G|--2------0----1---2------------0--2----0--5------5----2---0--2-----2--------|
D|------4--2----3---4---4----4---2--4----0---------------------4--4-----2---3-|
A|--4---5---------------5----5------------------------------------5--4--4---4-|
E|----------------------------------------------------------------------------|
  tree wounded and bleeding for sinners pleading blind and unheeding dying for
e|---------------------------------------------------------------------------|
B|---------------------------------------------------------------------------|
G|---------------------------------------------------------------------------|
D|0--------------------------------------------------------------------------|
A|0--------------------------------------------------------------------------|
E|---------------------------------------------------------------------------|
  me


************************************

| /   slide up
| \   slide down
| h   hammer-on
| p   pull-off
| ~   vibrato
| +   harmonic
| x   Mute note
| b   Bend
| pb  Pre-bend
| br  Bend release
| pbr Pre-bend release
| brb Bend release bend

************************************
Добавлено: 18.04.2016
Другие материалы по этой песне:
  • Аккорды и текст

Страница создана 18.04.2016
http://primanota.ru/misc-unsigned-bands/avis-b-christianson-blessed-redeemer-chords.htm
Привет, Гость.
Предлагаем пройти революционный курс по гитаре.
Подарок от PrimaNota.Ru, забирай!