PrimaNota.ru - самый крупный в мире бесплатный архив песенных текстов, аккордов, табулатур и нот


Misc Unsigned Bands - Black Butterflies - Sunday Without God - таба, видео

Регистрация Запомнить меня
Войти через:  Facebook Google Twitter Vk Yandex Mail.ru

Misc Unsigned Bands - Black Butterflies - Sunday Without God - таба, видео

Печатать
Просмотров: 43
  (Clean Guitar)
    
 Dm          F         Am          C 
E------1----------1----------------------------|
B---3---2------1---1---------1----------1------|
G--2--2--3----2--2--2-----2---2------0---0-----|
D-0-------0--3-------3---2--2--2----2--2--2----|
A-----------------------0-------0--3-------3---|
E----------------------------------------------|

           (Distorted Guitar)  
 
E----------------------------------------------|
B----------------------------------------------|
G----------------------------------------------|
D-12--12-14-15--15-17-19--19-20-17--17-15------|
A----------------------------------------------|
E----------------------------------------------|

     Dm          F         Am          C 
E------1----------1----------------------------|
B---3---2------1---1---------1----------1------|
G--2--2--3----2--2--2-----2---2------0---0-----|
D-0-------0--3-------3---2--2--2----2--2--2----|
A-----------------------0-------0--3-------3---|
E----------------------------------------------|

 
E----------------------------------------------|
B----------------------------------------------|
G----------------------------------------------|
D-12--12-14-15--15-17-19--19-20-17--17-15------|
A----------------------------------------------|
E----------------------------------------------|

     Am          C         Em         G
 
E----------------------------------------------|
B------1----------1----------------------------|
G---2---2------0---0---------1----------0------|
D--2-2---2----2-2---2-----2---2------0---0-----|
A-0-------0--3-------3---2-2---2----2-2---2----|
E-----------------------0-------3--3-------3---|

E-----------------------------------------------|
B-----------------------------------------------|
G-----------------------------------------------|
D-----------------------------------------------|
A-17--17-19-15--15-17-14--14-15-12--12-14-15----|
E-----------------------------------------------|

     Am          C         Em         G

E----------------------------------------------|
B------1----------1----------------------------|
G---2---2------0---0---------1----------0------|
D--2-2---2----2-2---2-----2---2------0---0-----|
A-0-------0--3-------3---2-2---2----2-2---2----|
E-----------------------0-------3--3-------3---|

E-----------------------------------------------|
B-----------------------------------------------|
G-----------------------------------------------|
D-----------------------------------------------|
A-17--17-19-15--15-17-14--14-15-12--12-14-15----|
E-----------------------------------------------|

     Am           F       Am7(alt)        C 

E------------------1----------3--------1-------|
B-------1-------0---1------1---1------0---0----|
G---2----2-----2-2---2----0--0--0----2--2--2---|
D--2-2----2---3-------3--3-------3--3-------3--|
A-0--------0-----------------------------------|
E----------------------------------------------|

E----------------------------------------------|
B----------------------------------------------|
G-14--14-12-10--10-9-12--12-14-17--------------|
D----------------------------------------------|
A----------------------------------------------|
E----------------------------------------------|

   Am           F       Am7(alt)        C 

E------------------1----------3--------1-------|
B-------1-------0---1------1---1------0---0----|
G---2----2-----2-2---2----0--0--0----2--2--2---|
D--2-2----2---3-------3--3-------3--3-------3--|
A-0--------0-----------------------------------|
E----------------------------------------------|

E----------------------------------------------|
B----------------------------------------------|
G-14--14-12-10--10-9-12-12-14-17---------------|
D----------------------------------------------|
A----------------------------------------------|
E----------------------------------------------|

     Dm          F         Am          C 

E------1----------1----------------------------|
B---3---2------1---1---------1----------1------|
G--2--2--3----2--2--2-----2---2------0---0-----|
D-0-------0--3-------3---2--2--2----2--2--2----|
A-----------------------0-------0--3-------3---|
E----------------------------------------------|
 
E----------------------------------------------|
B----------------------------------------------|
G----------------------------------------------|
D-12--12-14-15--15-17-19--19-20-17--17-15------|
A----------------------------------------------|
E----------------------------------------------|


                 Clean Guitar

E---1---1---1h3----1---1---1h3-----0---0---0h1----0---0---0h1---|
B--3-3-3-3-3------3-3-3-3-3-------3-3-3-3-3------3-3-3-3-3------|
G-2---2---2------2---2---2-------2---2---2------2---2---2-------|
D---------------------------------------------------------------|
A---------------------------------------------------------------|
E---------------------------------------------------------------|

E---1---0---3---5---1---0---3---5---1---0---3---5----|
B--3-3-3-3-3-3-3-3-3-3-3-3-3-3-3-3-3-3-3-3-3-3-3-3---|
G-2---2---2---2---2---2---2---2---2---2---2---2------|
D----------------------------------------------------|
A----------------------------------------------------|
E----------------------------------------------------|

Your'e so analytical, Your'e so predictable, 
All you say is Biblical, You couldn't go a Sunday Without Your'e God 

E-5-3-1-0--5-3-1-0----5-5-5-3-3-3-3-1-1-1-0-0-0-0--5-5-5-3-3-3-3-1-1-1-0-0-0-0---|
B-3-3-3-3--3-3-3-3----3-3-3-3-3-3-3-3-3-3-3-3-3-3--3-3-3-3-3-3-3-3-3-3-3-3-3-3---|
G--------------------------------------------------------------------------------|
D--------------------------------------------------------------------------------|
A--------------------------------------------------------------------------------|
E--------------------------------------------------------------------------------|

Your'e a narcissist, Living your life as a fraud,
Your'e no hypocrite, You couldn't go a Sunday Without Your God 
E----------------------------------------------------------------------|
B----------------------------------------------------------------------|
G--7-7-7-7-5-5-5-5-3-3-3-3-2-2-2-2---7-7-7-7-5-5-5-5-3/5\3-2-2-2-2-----|
D--5-5-5-5-3-3-3-3-1-1-1-1-0-0-0-0---5-5-5-5-3-3-3-3-1/3\1-0-0-0-0-----|
A----------------------------------------------------------------------|
E----------------------------------------------------------------------|

You write down everything you listen to, You mourn everything I say and do,
You think everything is just for you, You couldn't go a Sunday Without Your God

E----------------------------------------------------------------|
B----------------------------------------------------------------|
G--7-7-7-7-5-5-5-5-3-3-3-3-2-2-2-2---7-7-7-7-5-5-5-5-3-5-7-10----|
D--5-5-5-5-3-3-3-3-2-2-2-2-0-0-0-0---5-5-5-5-3-3-3-3-1-3-5--8----|
A----------------------------------------------------------------|
E----------------------------------------------------------------|


E----------------------------------------------------|
B----------------------------------------------------|
G------7-8-7------10-12-10-----5-6-5-----8-10-8------|
D--5-5--5-5--5/8-8--8--8--8\3-3-3-3-3/6-6-6--6-6-6---|
A----------------------------------------------------|
E----------------------------------------------------|

I've cut myself, Ive raped myself,
I've been forsaken, I've been abused, 

E----------------------------------------------------|
B----------------------------------------------------|
G------7-8-7------10-12-10-----5-6-5-----8-10-8------|
D--5-5--5-5--5/8-8--8--8--8\3-3-3-3-3/6-6-6--6-6-6---|
A----------------------------------------------------|
E----------------------------------------------------|

I've been living while constantly dying, I have always lived and enjoyed my life,
I have lived every Sunday Without Your God,

E----------------------------------------------------------------------|
B----------------------------------------------------------------------|
G--7-7-7-7-5-5-5-5-3-3-3-3-2-2-2-2---7-7-7-7-5-5-5-5-3/5\3-2-2-2-2-----|
D--5-5-5-5-3-3-3-3-1-1-1-1-0-0-0-0---5-5-5-5-3-3-3-3-1/3\1-0-0-0-0-----|
A----------------------------------------------------------------------|
E----------------------------------------------------------------------|

Your'e a "Holy" fanatic, Who's so very vain, You could have never seen our pain, 
You couldn't go a Sunday Without Your'e God,

E----------------------------------------------------------------|
B----------------------------------------------------------------|
G--7-7-7-7-5-5-5-5-3-3-3-3-2-2-2-2---7-7-7-7-5-5-5-5-3-5-7-10----|
D--5-5-5-5-3-3-3-3-2-2-2-2-0-0-0-0---5-5-5-5-3-3-3-3-1-3-5--8----|
A----------------------------------------------------------------|
E----------------------------------------------------------------|
I have seen many parts of Heaven, Have witnessed every part of Hell,
I have lived over nineteen year's, I have lived every Sunday Without Your'e God, 

E---------------------------------------------------------------------|
B---------------------------------------------------------------------|
G-----7-7h8p7-7-------10h12p10-10-------5-5h6p5-5-------8-8h10p8-8----|
D--5-5-5-----5-5/8-8-8--------8--8\3-3-3-3-----3-3/6-6-6-6------6-6---|
A---------------------------------------------------------------------|
E---------------------------------------------------------------------|

E---------------------------------------------------------------------|
B---------------------------------------------------------------------|
G-----7-7h8p7-7-------10h12p10-10-------5-5h6p5-5-------8-8h10p8-8----|
D--5-5-5-----5-5/8-8-8--------8--8\3-3-3-3-----3-3/6-6-6-6------6-6---|
A---------------------------------------------------------------------|
E---------------------------------------------------------------------|

I've cut myself, I've raped myself,
I have been forsaken,I have been abused,

E----------------------------------------------------------------------|
B----------------------------------------------------------------------|
G--7-7-7-7-5-5-5-5-3-3-3-3-2-2-2-2---7-7-7-7-5-5-5-5-3/5\3-2-2-2-2-----|
D--5-5-5-5-3-3-3-3-1-1-1-1-0-0-0-0---5-5-5-5-3-3-3-3-1/3\1-0-0-0-0-----|
A----------------------------------------------------------------------|
E----------------------------------------------------------------------|

Ive been living while constantly dying, I've lived and enjoyed my life,
I've have lived every Sunday Without Your'e God,

E----------------------------------------------------------------|
B----------------------------------------------------------------|
G--7-7-7-7-5-5-5-5-3-3-3-3-2-2-2-2---7-7-7-7-5-5-5-5-3-5-7-10----|
D--5-5-5-5-3-3-3-3-2-2-2-2-0-0-0-0---5-5-5-5-3-3-3-3-1-3-5--8----|
A----------------------------------------------------------------|
E----------------------------------------------------------------|


E----------------------------------------------------|
B----------------------------------------------------|
G------7-8-7------10-12-10-----5-6-5-----8-10-8------|
D--5-5--5-5--5/8-8--8--8--8\3-3-3-3-3/6-6-6--6-6-6---|
A----------------------------------------------------|
E----------------------------------------------------|

E----------------------------------------------------|
B----------------------------------------------------|
G------7-8-7------10-12-10-----5-6-5-----8-10-8------|
D--5-5--5-5--5/8-8--8--8--8\3-3-3-3-3/6-6-6--6-6-6---|
A----------------------------------------------------|
E----------------------------------------------------|


E----------------------------------------------------------------------|
B----------------------------------------------------------------------|
G--7-7-7-7-5-5-5-5-3-3-3-3-2-2-2-2---7-7-7-7-5-5-5-5-3/5\3-2-2-2-2-----|
D--5-5-5-5-3-3-3-3-1-1-1-1-0-0-0-0---5-5-5-5-3-3-3-3-1/3\1-0-0-0-0-----|
A----------------------------------------------------------------------|
E----------------------------------------------------------------------|

E----------------------------------------------------------------|
B----------------------------------------------------------------|
G--7-7-7-7-5-5-5-5-3-3-3-3-2-2-2-2---7-7-7-7-5-5-5-5-3-5-7-10----|
D--5-5-5-5-3-3-3-3-2-2-2-2-0-0-0-0---5-5-5-5-3-3-3-3-1-3-5--8----|
A----------------------------------------------------------------|
E----------------------------------------------------------------|


E----------------------------------------------------------------------|
B----------------------------------------------------------------------|
G--7-7-7-7-5-5-5-5-3-3-3-3-2-2-2-2---7-7-7-7-5-5-5-5-3/5\3-2-2-2-2-----|
D--5-5-5-5-3-3-3-3-1-1-1-1-0-0-0-0---5-5-5-5-3-3-3-3-1/3\1-0-0-0-0-----|
A----------------------------------------------------------------------|
E----------------------------------------------------------------------|

E----------------------------------------------------------------|
B----------------------------------------------------------------|
G--7-7-7-7-5-5-5-5-3-3-3-3-2-2-2-2---7-7-7-7-5-5-5-5-3-5-7-10----|
D--5-5-5-5-3-3-3-3-2-2-2-2-0-0-0-0---5-5-5-5-3-3-3-3-1-3-5--8----|
A----------------------------------------------------------------|
E----------------------------------------------------------------|

Everyday you live you become less perfect,
You could never be more holy than anybody,

E--------------------------------------------------------------------|
B--------------------------------------------------------------------|
G--7-7-7-7-5-5-5-5-3-3-3-3-2-2-2-2---7-7-7-7-5-5-5-5-3/5\3-2-2-2-2---|
D--5-5-5-5-3-3-3-3-1-1-1-1-0-0-0-0---5-5-5-5-3-3-3-3-1/3\1-0-0-0-0---|
A--------------------------------------------------------------------|
E--------------------------------------------------------------------|

Every word you speak shows your'e imperfections,
You will never be more perfect than anyone,

E---------------------------------------------------------------|
B---------------------------------------------------------------|
G--7-7-7-7-5-5-5-5-3-3-3-3-2-2-2-2---7-7-7-7-5-5-5-5-3-5-7-10---|
D--5-5-5-5-3-3-3-3-2-2-2-2-0-0-0-0---5-5-5-5-3-3-3-3-1-3-5--8---|
A---------------------------------------------------------------|
E---------------------------------------------------------------|

But here we are living under our God,
Here we are praying to our God,
Добавлено: 18.04.2016
Другие материалы по этой песне:
  • Аккорды и текст

Страница создана 18.04.2016
http://primanota.ru/misc-unsigned-bands/black-butterflies-sunday-without-god-chords.htm
Привет, Гость.
Предлагаем пройти революционный курс по гитаре.
Подарок от PrimaNota.Ru, забирай!