PrimaNota.ru - самый крупный в мире бесплатный архив песенных текстов, аккордов, табулатур и нот


Misc Unsigned Bands - Campfire - Daisy Allen - таба

Регистрация Запомнить меня
Войти через:  Facebook Google Twitter Vk Yandex Mail.ru

Misc Unsigned Bands - Campfire - Daisy Allen - таба

Печатать
Просмотров: 46
Уроки эстрадного вокала в Санкт-Петербурге
-------------------------------------------------------------------------------
                             CAMPFIRE - Daisy Allen
-------------------------------------------------------------------------------

Tuning:CGEGCE

INTRO:
e|----------------------------------------------------------------------------|
c|--0--------0---------2--------2---------4--------4---------7--------7-------|
g|-------0-------0----------0-------0----------0-------0----------0-------0---|
E|-----0-------0----------0-------0----------0-------0----------0-------0-----|
G|----------------------------------------------------------------------------|
C|--0------0-----------0------0-----------0------0-----------0------0---------|

e|----------------------------------------------------------------------------|
c|--7--------7---------5--------5---------7--------7---------5--------5-------|
g|-------5-------5----------5-------5----------5-------5----------5-------5---|
E|-----5-------5----------5-------5----------5-------5----------5-------5-----|
G|----------------------------------------------------------------------------|
C|--5------5-----------5------5-----------5------5-----------5------5---------|

VERSE(x4):

e|----------------------------------------------------------------------------|
c|--7--------7---------9--------9---------11-------11--------9--------9-------|
g|-------0-------0----------0-------0----------0-------0----------0-------0---|
E|-----0-------0----------0-------0----------0-------0----------0-------0-----|
G|----------------------------------------------------------------------------|
C|--0------0-----------0------0-----------0------0-----------0------0---------|

e|----------------------------------------------------------------------------|
c|--7--------7---------5--------5---------7--------7---------5--------5-------|
g|-------5-------5----------5-------5----------5-------5----------5-------5---|
E|-----5-------5----------5-------5----------5-------5----------5-------5-----|
G|----------------------------------------------------------------------------|
C|--5------5-----------5------5-----------5------5-----------5------5---------|


PRECHORUS

e|----------------------------------------------------------------------------|
c|--2--------2---------2--------2---------2--------2---------2--------2-------|
g|-------2-------2----------2-------2----------2-------2----------2-------2---|
E|-----2-------2----------2-------2----------2-------2----------2-------2-----|
G|----------------------------------------------------------------------------|
C|--2------2-----------2------2-----------2------2-----------2------2---------|

e|----------------------------------------------------------------------------|
c|--5--------5---------5--------5---------7------5----------------------------|
g|-------5-------5----------5-------5-----------------------------------------|
E|-----5-------5----------5-------5-------------------------------------------|
G|----------------------------------------------------------------------------|
C|--5------5-----------5------5-----------5------5----------------------------|


CHORUS:

e|----------------------------------------------------------------------------|
c|--0--------0---------0--------0---------0--------0---------0--------0-------|
g|-------0-------0----------0-------0----------0-------0----------0-------0---|
E|-----0-------0----------0-------0----------0-------0----------0-------0-----|
G|----------------------------------------------------------------------------|
C|--0------0-----------0------0-----------0------0-----------0------0---------|

e|----------------------------------------------------------------------------|
c|--5--------5---------5--------5---------7--------7---------5--------5-------|
g|-------5-------5----------5-------5----------5-------5----------5-------5---|
E|-----5-------5----------5-------5----------5-------5----------5-------5-----|
G|----------------------------------------------------------------------------|
C|--5------5-----------5------5-----------5------5-----------5------5---------|

e|----------------------------------------------------------------------------|
c|--0--------0---------0--------0---------0--------0---------0--------0-------|
g|-------0-------0----------0-------0----------0-------0----------0-------0---|
E|-----0-------0----------0-------0----------0-------0----------0-------0-----|
G|----------------------------------------------------------------------------|
C|--0------0-----------0------0-----------0------0-----------0------0---------|

e|----------------------------------------------------------------------------|
c|--5--------5---------5--------5---------7------5----------------------------|
g|-------5-------5----------5-------5-----------------------------------------|
E|-----5-------5----------5-------5-------------------------------------------|
G|----------------------------------------------------------------------------|
C|--5------5-----------5------5-----------5------5----------------------------|

Structure:
INTRO
VERSE
PRECHORUS
CHORUS
INTRO
VERSE
PRECHORUS
CHORUS
ENDING


For the ending ('we're not afraid of being alone...') simply barre and strum the open strings alternating 
between no frets (0) and the fifth fret. (C and F chords) , with one D chord (barre 2nd fret) when it goes back
the the prechorus :)

lyrics are on daisyallen.bandcamp.com

Добавлено: 18.04.2016
Другие материалы по этой песне:
  • Аккорды и текст

Страница создана 18.04.2016
http://primanota.ru/misc-unsigned-bands/campfire-daisy-allen-chords.htm
Привет, Гость.
Предлагаем пройти революционный курс по гитаре.
Подарок от PrimaNota.Ru, забирай!