PrimaNota.ru - самый крупный в мире бесплатный архив песенных текстов, аккордов, табулатур и нот


Misc Unsigned Bands - All Faces Down - Face The Truth - таба

Регистрация Запомнить меня
Войти через:  Facebook Google Twitter Vk Yandex Mail.ru

Misc Unsigned Bands - All Faces Down - Face The Truth - таба

Печатать
Просмотров: 136
-------------------------------------------------------------------------------
                               Band: All Faces Down (AUS)
                                  Song: Face The Truth
                              Album: Face The Truth (2011)
                                  Genre: Post-Hardcore
-------------------------------------------------------------------------------
Tuning: Drop C# (C# G# C# F# A# D#)

Intro (0:02)

Rhythm guitar
D#|-----------------------------------------------------------------------------|
A#|-----------------------------------------------------------------------------|
F#|----------9--9--9--------------9--9--9---------------16-16-16----------9-9-9-|
C#|-----------------------------------------------------------------------------|
G#|-7----7---7--7--7----7----7----7--7--7----14-14-14---14-14-14---5-5-5--7-7-7-|
C#|-----------------------------------------------------------------------------|

0:07. Second guitar and drums added

Rhythm guitar
D#|-----------------------------------------------------------------------------|
A#|-----------------------------------------------------------------------------|
F#|----------9--9--9--------------9--9--9---------------12-12-12---7-7-7-7------|
C#|-----------------------------------------------------------------------------|
G#|-7----7---7--7--7----7----7----7--7--7----10-10-10---10-10-10---5-5-5-5-20\--|
C#|------------------------------------------------------------------------20\--|

Lead guitar                                                           11s
D#|-----------------------------------------------------------------------------|
A#|-----------------------------------------------------------------------------|
F#|----------12-12-12-------------12-12-12--------------16-16-16---11111111-----|
C#|-----------------------------------------------------------------------------|
G#|10---10---10-10-10---10---10---10-10-10---14-14-14---14-14-14---9-9-9-9-20\--|
C#|------------------------------------------------------------------------20\--|

Intro 2 (0:13)

Both guitars
D#|-----------------------------------------------------------------------------|
A#|-----------------------------------------------------------------------------|
F#|------------------------------------------------10-10-10----7-7-7------------|
C#|2---0-2-0-2---2-2---0-2-0-2---2-2---0-2-0-2---2------------------------------|  X4
G#|2---0-2-0-2---2-2---0-2-0-2---2-2---0-2-0-2---2-8--8--8-----5-5-5------------|
C#|2---0-2-0-2---2-2---0-2-0-2---2-2---0-2-0-2---2------------------------------|
                 *               *               *  

Verse 1 (0:33)

Rhythm guitar
D#|-----------------------------------------------------------------------------|
A#|-----------------------------------------------------------------------------|
F#|----------------------------10-10-10-10-7--7--7--7---------------------------|
C#|2-2-2~---2-2-2~---2-2-2~-----------------------------------------------------|
G#|2-2-2~---2-2-2~---2-2-2~----8--8--8--8--5--5--5--5---------------------------|
C#|2-2-2~---2-2-2~---2-2-2~-----------------------------------------------------|
   * *      * *      * *
Lead guitar
D#|-----------------------------------------------------------------------------|
A#|-----------------------------------------------------------------------------|
F#|----------------------------14-14-14-14-10-10-10-10--------------------------|
C#|2-2-2~---2-2-2~---2-2-2~-----------------------------------------------------|
G#|2-2-2~---2-2-2~---2-2-2~----12-12-12-12-8--8--8--8---------------------------|
C#|2-2-2~---2-2-2~---2-2-2~-----------------------------------------------------|
   * *      * *      * *
Rhythm guitar
D#|-----------------------------------------------------------------------------|
A#|-----------------------------------------------------------------------------|
F#|----------------------------10-10-10-10-7--7--7--7---------------------------|
C#|2-2-2----2-2-2----2-2-2------------------------------------------------------|
G#|2-2-2----2-2-2----2-2-2-----8--8--8--8--5--5--5--5---------------------------|
C#|2-2-2----2-2-2----2-2-2------------------------------------------------------|
   * *      * *      * *
Lead guitar
D#|-----------------------------------------------------------------------------|
A#|-----------------------------------------------------------------------------|
F#|----------------------------14-14-14-14-10-10-10-10--------------------------|
C#|2-2-2----2-2-2----2-2-2------------------------------------------------------|
G#|2-2-2----2-2-2----2-2-2-----12-12-12-12-8--8--8--8---------------------------|
C#|2-2-2----2-2-2----2-2-2------------------------------------------------------|
   * *      * *      * * 

Pre-chorus (0:45)

Rhythm guitar             Harm.
D#|-----------------------------------------------------------------------------|
A#|------------------------5-5--------------------------------------------------|
F#|-----------------------------------------------------------------------------|
C#|-----------------------------------------------------------------------------|
G#|5-7-7-5-7-7-5-7-7-5-7-7------------------------------------------------------|
C#|-----------------------------------------------------------------------------|

Lead guitar                       Harm.
D#|-----------------------------------------------------------------------------|
A#|-----------------------------------------------------------------------------|
F#|--------------------------------9-9------------------------------------------|
C#|-----------------------------------------------------------------------------|
G#|8-10-10-8-10-10-8-10-10-8-10-10----------------------------------------------|
C#|-----------------------------------------------------------------------------|

Chorus (0:47)

Rhythm guitar
D#|-----------------------------------------------------------------------------|
A#|----------------------(X8)----(X8)-------------------------------------------|
F#|(X16)-(X16)--(X16)-----5-------7---------------------------------------------| X2
C#|--2-----5------0-------------------------------------------------------------|
G#|--2-----5------0-------3-------5---------------------------------------------|
C#|--2-----5------0-------------------------------------------------------------|

Lead guitar
D#|-----------------------------------------------------------------------------|
A#|(X4)-(X4)-(X4)-(X4)-(X16)----(X4)-(X4)-(X6)--(X2)-(X8)----(X8)---------------|
F#|-16---14---12---11---16-------14---12---11----12---9-------11----------------|
C#|-----------------------------------------------------------------------------| X2
G#|-14---12---10---9----14-------12---10---9-----10---7-------9-----------------|
C#|-----------------------------------------------------------------------------|

1:08

Rhythm guitar
D#|-----------------------------------------------------------------------------|
A#|-----------------------------------------------------------------------------|
F#|-----------------------------------------------------------------------------|
C#|2-2-2~---2-2-2~---2-2-2~-----------------------------------------------------|
G#|2-2-2~---2-2-2~---2-2-2~---/20\----------------------------------------------|
C#|2-2-2~---2-2-2~---2-2-2~---/20\----------------------------------------------|
   * *      * *      * *
Lead guitar
D#|-----------------------------------------------------------------------------|
A#|-----------------------------------------------------------------------------|
F#|-----------------------------------------------------------------------------|
C#|2~---------------------------------------------------------------------------|
G#|2~-------------------------/20\----------------------------------------------|
C#|2~-------------------------/20\----------------------------------------------|

Verse 2 (1:14)

Both guitars
D#|-----------------------------------------------------------------------------|
A#|-----------------------------------------------------------------------------|
F#|----------------------------10-10-10-10-7--7--7--7---------------------------|
C#|2-2-2~---2-2-2~---2-2-2~-----------------------------------------------------| X2
G#|2-2-2~---2-2-2~---2-2-2~----8--8--8--8--5--5--5--5---------------------------|
C#|2-2-2~---2-2-2~---2-2-2~-----------------------------------------------------|
   * *      * *      * *  
Then

Rhythm guitar
D#|-----------------------------------------------------------------------------|
A#|-----------------------------------------------------------------------------|
F#|----------------------------10-10-10-10-7--7--7--7---------------------------|
C#|2-2-2----2-2-2----2-2-2------------------------------------------------------| X2
G#|2-2-2----2-2-2----2-2-2-----8--8--8--8--5--5--5--5---------------------------|
C#|2-2-2----2-2-2----2-2-2------------------------------------------------------|
   * *      * *      * * 
Lead guitar
D#|-----------------------------------------------------------------------------|
A#|-----------------------------------------------------------------------------|
F#|----------------------------14-14-14-14-10-10-10-10--------------------------|
C#|2-2-2----2-2-2----2-2-2------------------------------------------------------| X2
G#|2-2-2----2-2-2----2-2-2-----12-12-12-12-8--8--8--8---------------------------|
C#|2-2-2----2-2-2----2-2-2------------------------------------------------------|
   * *      * *      * *

Pre-chorus and chorus again.

Breakdown (1:59)

Rhythm guitar
D#|-----------------------------------------------------------------------------|
A#|-----------------------------------------------------------------------------|
F#|-----------------------------------------------------------------------------|
C#|-----------------------------------------------------------------------------|
G#|2222222-2-2----22220-0-0-----------------------------------------------------|
C#|2222222-2-2----22220-0-0-----------------------------------------------------|
   ******* * *    ***** * *

Lead guitar
D#|-----------------------------------------------------------------------------|
A#|-----------------------------------------------------------------------------|
F#|-----------------------------------------------------------------------------|
C#|2~---------------------------------------------------------------------------|
G#|2~---------------------------------------------------------------------------|
C#|2~---------------------------------------------------------------------------|

Both guitars (with drums)
D#|-----------------------------------------------------------------------------|
A#|-----------------------------------------------------------------------------|
F#|-----------------------------------------------------------------------------|
C#|-----------------------------------------------------------------------------|
G#|2222222-2-2----2222-20\------------------------------------------------------|
C#|2222222-2-2----2222-20\------------------------------------------------------|
   ******* * *    ****

Let's go!

Both guitars
D#|-----------------------------------------------------------------------------|
A#|-----------------------------------------------------------------------------|
F#|-----------------------------------------------------------------------------|
C#|-----------------------------------------------------------------------------| X2
G#|2222222-2-2----22220-0-0----2222222-2-2----22220-0-0-------------------------|
C#|2222222-2-2----22220-0-0----2222222-2-2----22220-0-0-------------------------|
   ******* * *    ***** * *    ******* * *    ***** * *

D#|-----------------------------------------------------------------------------|
A#|-----------------------------------------------------------------------------|
F#|-----------------------------------------------------------------------------|
C#|----------(fast)--------------------(fast)-----------------------------------| X2
G#|2222222-0-2-0-2-0----0~---2222222-0-2-0-2-0----0~----------------------------|
C#|2222222-0-2-0-2-0----0~---2222222-0-2-0-2-0----0~----------------------------|
   ******                    ******

Pre-chorus.

Lead guitar plays chorus 2 times.
Rhythm guitar plays chorus 1 time, then

D#|-----------------------------------------------------------------------------|
A#|--------------------------------------------------------------------(X8)-(X8)|
F#|---------------------------------------------------------------(X16)-5----7--|
C#|2-2-2-2-2-2-2-2-2---2-2-2---2-2-5-5-5-5-5-5-5-5-5---5-5-5---5-5--0-----------| X2
G#|2-2-2-2-2-2-2-2-2---2-2-2---2-2-5-5-5-5-5-5-5-5-5---5-5-5---5-5--0---3----5--|
C#|2-2-2-2-2-2-2-2-2---2-2-2---2-2-5-5-5-5-5-5-5-5-5---5-5-5---5-5--0-----------|
               * *     * *     * *             * *     * *     * * 

Last chord (both guitars)
D#|-----------------------------------------------------------------------------|
A#|-----------------------------------------------------------------------------|
F#|9~---------------------------------------------------------------------------|
C#|-----------------------------------------------------------------------------|
G#|7~---------------------------------------------------------------------------|
C#|-----------------------------------------------------------------------------|

That's all. I believe this tab is pretty accurate, but if you can correct and improve it - you're welcome.



************************************

| /   slide up
| \   slide down
| ~   let ring
| *   palm mute


************************************
Добавлено: 19.07.2015
Другие материалы по этой песне:
  • Аккорды и текст

Страница создана 19.07.2015
http://primanota.ru/misc-unsigned-bands/all-faces-down-face-truth-chords.htm
Привет, Гость.
Предлагаем пройти революционный курс по гитаре.
Подарок от PrimaNota.Ru, забирай!