PrimaNota.ru - самый крупный в мире бесплатный архив песенных текстов, аккордов, табулатур и нот


Misc Unsigned Bands - Unitiled By The Escapist - бас-таба

Регистрация Запомнить меня
Войти через:  Facebook Google Twitter Vk Yandex Mail.ru

Misc Unsigned Bands - Unitiled By The Escapist - бас-таба

Печатать
Просмотров: 93
-------------------------------------------------------------------------------
                             The Escapist - Untitled Song
-------------------------------------------------------------------------------
Tabbed by: tarinmatoo
E-mail: 

Tuning: Standard

INTRO
G|---------------------------------------------------------------------------|
D|---------3----(play-this-7-times)-------3-----3---6\5\3\0~-----------------|
A|------3/5-5--------------------------3/5-5\3/5-5---------------------------|
E|---------------------------------------------------------------------------|

CHORUS (NO VOCALS)
G|---------------------------------------------------------------------------|
D|---------------------------------------------------------------------------|
A|55555555-33333333----------------------------------------------------------|
E|------------------66666666-5555-3333-(play this 3 times)-------------------|

G|---------------------------------------------------------------------------|
D|---------------------------------------------------------------------------|
A|55555555-33333333-----------------5~~~~------------------------------------|
E|------------------66666666-55-33-------------------------------------------|

FIRST VERSE (NO BASS FOR FIRST TWO TIMES THE RIFF IS PLAYED)
G|---------------------------------------------------------------------------|
D|---------------------------------------------------------------------------|
A|55555555-33333333----------------------------------------------------------|
  ******** ********                    (play this twice)
E|------------------66666666-5555-3333---------------------------------------|
                    ******** **** ****

CHORUS
G|---------------------------------------------------------------------------|
D|---------------------------------------------------------------------------|
A|55555555-33333333----------------------------------------------------------|
E|------------------66666666-5555-3333-(play this 3 times)-------------------|

G|---------------------------------------------------------------------------|
D|---------------------------------------------------------------------------|
A|55555555-33333333-----------------5~~~~------------------------------------|
E|------------------66666666-55-33-------------------------------------------|

SECOND VERSE (NO BASS FOR FIRST TWO TIMES THE RIFF IS PLAYED)
G|---------------------------------------------------------------------------|
D|---------------------------------------------------------------------------|
A|55555555-33333333----------------------------------------------------------|
  ******** ********                    (play this twice)
E|------------------66666666-5555-3333---------------------------------------|
                    ******** **** ****

BREAKDOWN (PLAYED IN TIME WITH THE DRUMS DURING THE MINI-SOLO)
G|---------------------------------------------------------------------------|
D|---------------------------------------------------------------------------|
A|5--3----------5--3-----(play this twice but sped up on the second time)----|
E|------3--5--6-------3--5--6------------------------------------------------|

FINAL CHORUS
G|---------------------------------------------------------------------------|
D|---------------------------------------------------------------------------|
A|55555555-33333333----------------------------------------------------------|
E|------------------66666666-5555-3333-(play this 3 times)-------------------|

G|---------------------------------------------------------------------------|
D|---------------------------------------------------------------------------|
A|55555555-33333333-----------------~------5~~~~~~~~------------------------|
E|------------------66666666-55-33-55--33------------------------------------|




| /  slide up
| \  slide down
| h  hammer-on
| p  pull-off
| ~  let ring
| +  harmonic
| *  Mute note
===============================================================================
Добавлено: 21.08.2015
Другие материалы по этой песне:
  • Аккорды и текст

Страница создана 21.08.2015
http://primanota.ru/misc-unsigned-bands/unitiled-by-escapist-chords.htm
Привет, Гость.
Предлагаем пройти революционный курс по гитаре.
Подарок от PrimaNota.Ru, забирай!