PrimaNota.ru - самый крупный в мире бесплатный архив песенных текстов, аккордов, табулатур и нот


Misc Unsigned Bands - Breakdown Love - Youre My Life - таба, бас-таба, видео

Регистрация Запомнить меня
Войти через:  Facebook Google Twitter Vk Yandex Mail.ru

Misc Unsigned Bands - Breakdown Love - Youre My Life - таба, бас-таба, видео

Печатать
Просмотров: 74
Tuning: Drop D

Key:
h:Hammer-On
p:Pull-Off
v:Vibrato
/:Slide
pm:Palm Mute
~:Hold Note

This is My Band, BreakDown Love. I am Lead Vocals, Rhythm Guitar, Percussion and Sampling. This is our first 
single. a rough cut is on my YouTube account (Damon Finegan BreakDown Love) and the final should be up in 
about a month.

This song is a softer tune, so this is played clean on electric or on an acoustic.

Intro/Verses: Play Twice each time
E|--------------------------------------|
B|--------------------------------------|
G|-9--9-9999-9-9--9-9999-9--9-9999-9-9~-|
D|-7--7-7777-7-7--7-7777-7--7-7777-7-7~-|
A|-7--7-7777-7-0--0-0000-7--7-7777-7-0~-|
D|-7--7-7777-7-0--0-0000-7--7-7777-7-0~-|

Pre-Chorus Instrumental:
E|------------------------|
B|------------------------|
G|-9-9-9-9-9-11~-11-------|
D|-7-7-7-7-7--9~--9-------|
A|-7-7-7-7-7--9~--9-(x12)-|
D|-7-7-7-7-7--9~--9-------|
pm                .

Chorus:
E|-----------------------------------|
B|-----------------------------------|
G|-9--9-9999-9-9--9-9999-9--------9~-|
D|-7--7-7777-7-7--7-7777-7--------7~-|
A|-7--7-7777-7-0--0-0000-0-(x2.5)-0~-|
D|-7--7-7777-7-0--0-0000-0--------0~-|

Intro
Verse II
Pre-Chorus
Chorus

Bridge:
E|------------------------------------------------|
B|------------------------------------------------|
G|------------------------------9~-9-------9------|
D|-9--9-9999-9-7--7-7777-7------9~-9-------9------|
A|-7--7-7777-7-0--0-0000-0-(x2)-7~-7-(x10)-7-(x5)-|
D|-7--7-7777-7-0--0-0000-0------7~-7-------7------|
pm                                 .

Chorus
Chorus
Intro
Добавлено: 24.08.2015
Другие материалы по этой песне:
  • Аккорды и текст

Страница создана 23.08.2015
http://primanota.ru/misc-unsigned-bands/breakdown-love-youre-my-life-chords.htm
Привет, Гость.
Предлагаем пройти революционный курс по гитаре.
Подарок от PrimaNota.Ru, забирай!