PrimaNota.ru - самый крупный в мире бесплатный архив песенных текстов, аккордов, табулатур и нот


Misc Unsigned Bands - Against It - бас-таба, видео

Регистрация Запомнить меня
Войти через:  Facebook Google Twitter Vk Yandex Mail.ru

Misc Unsigned Bands - Against It - бас-таба, видео

Печатать
Просмотров: 111
Beatfrog - Against It

by mokkel


Intro/Verse

G|----------------------------------------------------
D|----------------------------------------------------
A|------5-6---5----3-1-3------------------------------
E|---3----------6-------------------------------------


Chorus

  3x                               1x
G|--------------------------------|-------------------
D|--------------------------------|-------------------
A|--------66-665------33-333------|------5-6----------
E|---3-3-3-------6-6-6------------|---3------66778899-


Bridge

G|----------------------------------------------------
D|----------------------------------------------------
A|--3-3-3-3-3-3-34-34--3-3-3-3------------------------
E|-----------------------------00112233---------------

G|----------------------------------------------------
D|----------------------------------------------------
A|--5-5-5-5-5-5-56-56--5-5-5-5------------------------
E|-----------------------------55667788---------------
Добавлено: 21.08.2015
Другие материалы по этой песне:
  • Аккорды и текст

Страница создана 21.08.2015
http://primanota.ru/misc-unsigned-bands/against-it-chords.htm
Привет, Гость.
Предлагаем пройти революционный курс по гитаре.
Подарок от PrimaNota.Ru, забирай!