PrimaNota.ru - самый крупный в мире бесплатный архив песенных текстов, аккордов, табулатур и нот


Misc Unsigned Bands - A Direst Desire - Illuminess - таба

Регистрация Запомнить меня
Войти через:  Facebook Google Twitter Vk Yandex Mail.ru

Misc Unsigned Bands - A Direst Desire - Illuminess - таба

Печатать
Просмотров: 84
-------------------------------------------------------------------------------
                             ILLUMINESS - a Direst Desire
-------------------------------------------------------------------------------
Tabbed by: Michael Beatson
E-mail: michaeljbeatson@gmail.com

Tuning: DADGAd (high b&e strings half a step down)


Guitar 2: Intro - strum through with open B&e strings

e|-0--0---0---0-----0--0---0---0-----0--0---0---0-----0----0-----------------|
B|-0--0---0---0-----0--0---0---0-----0--0---0---0-----0----0-----------------|
G|-7--9--11--14-----7--9--11--14-----7--9--11--14-----9----6-----------------|
D|---------------------------------------------------11----7-----------------|
A|---------------------------------------------------------------------------|
E|---------------------------------------------------------------------------|


Guitar 2: Verse - same deal with the strums above for the intro
                                                
e|-0--0---0---0-----0--0--0-------0--0--0---0----0--0---0---0----0--0---0---0|
B|-0--0---0---0-----0--0--0-------0--0--0---0----0--0---0---0----0--0---0---0|
G|-7--9--11--14-----7--9--6-------7--6--7---9----7--9--11--14----7--9--11--14|
D|------------------------7-------9--7--9--11--------------------------------|
A|----------------------------------------------||
E|---------------------------------------------------------------------------|


Guitar 2: Chorus - strum these chords. listen for a little bit of swing in the changes

e|---0---0---0---0-----------------------------------------------------------|
B|--10---0---0---0-----------------------------------------------------------|
G|--12--11---9---9-------x2--------------------------------------------------|
D|---0--12--11--11-----------------------------------------------------------|
A|---------------------------------------------------------------------------|
E|---------------------------------------------------------------------------|


Intro - Same Again
Verse 2 - Same but without the prechorus at the end
Chorus 2 - Same as 1st but twice as long(4 times through)


Guitar 2: Bridge Instrumental - once through without Singing, Once with singing.

e|---------------------------------------------------------------------------|
B|---------------------------------------------------------------------------|
G|--------------------------------12-12--------------------------------14-14-|
D|-14h16-16b-1616-14-16-14-16-1616------14h16-16b-1616-14-16-14-16-1616------|
A|---------------------------------------------------------------------------|
E|---------------------------------------------------------------------------|

e|---------------------------------------------------------------------------|
B|---------------------------------------------------------------------------|
G|--------------------------------12-12--------------------------------------|
D|-14h16-16b-1616-14-16-14-16-1616------14h16-16b-1616-14-16-14-16-1616-1414-|
A|---------------------------------------------------------------------------|
E|---------------------------------------------------------------------------|


Instrumental piano part and singing. (guitar 1 plays this)


Chorus 3 - Same as 1st (2x of chords then...)
Chorus 3 - 2nd half of chorus plus outro chords to thicken up the sound. (Guitar 2)

e|---------------------------------------------------------------------------|
B|---------------------------------------------------------------------------|
G|--7--14--9--9----7--14--9-------9-----7-14-9-----14------------------------|
D|--5--12--7--7----5--12--7--9----7--9--5-12-7-----12------------------------|
A|--5--12--7--7----5--12--7--9----7--9--5-12-7-----12------------------------|
D|--5--12--7--7----5--12--7--9----7--9--5-12-7-----12------------------------|



************************************

| /   slide up
| \   slide down
| h   hammer-on
| p   pull-off
| ~   vibrato
| +   harmonic
| x   Mute note
| b   Bend
| pb  Pre-bend
| br  Bend release
| pbr Pre-bend release
| brb Bend release bend

************************************
Добавлено: 19.07.2015
Другие материалы по этой песне:
  • Аккорды и текст

Страница создана 19.07.2015
http://primanota.ru/misc-unsigned-bands/direst-desire-illuminess-chords.htm
Привет, Гость.
Предлагаем пройти революционный курс по гитаре.
Подарок от PrimaNota.Ru, забирай!