PrimaNota.ru - самый крупный в мире бесплатный архив песенных текстов, аккордов, табулатур и нот


Misc Unsigned Bands - Believe The Lies - April 2 2015 - бас-таба, видео

Регистрация Запомнить меня
Войти через:  Facebook Google Twitter Vk Yandex Mail.ru

Misc Unsigned Bands - Believe The Lies - April 2 2015 - бас-таба, видео

Печатать
Просмотров: 85
April 2, 2015 - Believe The Lies
Tabbed by: gubugga97@gmail.com
Tuning: Standard 

Intro

G|---------------------------------------------------------------|
D|---------------------------------------------------------------|
A|---------------------------------------------------------------| x1
E|-0~--------4~--------5~------3-3-0~----------------------------|

Verse & Solo

G|---------------------------------------------------------------|
D|---------------------------------------------------------------|
A|---------------------------------------------------------------|
E|-0-0-0-0-0-0-0-0-0-0-0-0-4-4-4-4-4-4-4-4-4-4-4-4-5-5-5-5-5-5-5-|


G|---------------------------------------------------------------|
D|---------------------------------------------------------------|
A|---------------------------------------------------------------| x4
E|-5-5-5-5-5-3-3-0-0-0-0-0-0-0-0-0-0-----------------------------|

Chorus

G|------------------------------------------------------------------|
D|------------------------------------------------------------------|
A|---------------------------------------------------5-5-5-5-5-5-5-5| x4
E|-2-2-2-2-2-2-2-2-2-5-5-5-5-5-5-5-5-7-7-7-7-7-7-7-7----------------|

verse x2
chorus x1
verse x2
chorus x1
verse x1

************************************

| /   slide up
| \   slide down
| h   hammer-on
| p   pull-off
| ~   vibrato
| +   harmonic
| x   Mute note
| b   Bend
| pb  Pre-bend
| br  Bend release
| pbr Pre-bend release
| brb Bend release bend

************************************
Добавлено: 21.08.2015
Другие материалы по этой песне:
  • Аккорды и текст

Страница создана 21.08.2015
http://primanota.ru/misc-unsigned-bands/believe-lies-april-2-2015-chords.htm
Привет, Гость.
Предлагаем пройти революционный курс по гитаре.
Подарок от PrimaNota.Ru, забирай!