PrimaNota.ru - самый крупный в мире бесплатный архив песенных текстов, аккордов, табулатур и нот


Misc Unsigned Bands - Alive - Energy Infinite - таба, видео

Регистрация Запомнить меня
Войти через:  Facebook Google Twitter Vk Yandex Mail.ru

Misc Unsigned Bands - Alive - Energy Infinite - таба, видео

Печатать
Просмотров: 77
Уроки эстрадного вокала в Санкт-Петербурге
-------------------------------------------------------------------------------
                             Alive - Energy Infinite
-------------------------------------------------------------------------------
Tabbed by: TheDankTank
E-mail: jonanderson1996@gmail.com

Tuning: Drop D(DADGBE)

Intro A (x4)
      1   +   2   +   3   +   4   +   1   +   2   +   3   +   4   +
e|---------------------------------------------------------------------------|
B|---------------------------------------------------------------------------|
G|---------------------------------------------------------------------------|
D|--------7\6-----6-------4----------------7/9-----9--0----------------------|
A|------4-------2-------0----------------4-------7----0----------------------|
D|----4-------2-------0----------------4-------7------0----------------------|

Intro B (x2)
      1   +   2   +   3   +   4   +   1   +   2   +   3   +   4   +
e|---------------------------------------------------------------------------|
B|---------------------------------------------------------------------------|
G|---------------------------------------------------------------------------|
D|--------7/9-----9\6-----6/7-----7--------7/9-----9\6-----6/7-----4---------|
A|------4-------7-------2-------4--------4-------7-------2-------0-----------|
D|----4-------7-------2-------4--------4-------7-------2-------0-------------|

Verse
      1   +   2   +   3   +   4   +   1   +   2   +   3   +   4   +
e|---------------------------------------------------------------------------|
B|---------------------------------------------------------------------------|
G|---------------------------------------------------------------------------|
D|------------9-11--------9-11-----------------9-11--------9-11--------------|
A|-----12-9---------12-9---------12-9---12-9---------12-9---------12-9-------|
D|----0-----0------0-----0------0------0-----0------0-----0------0-----------|

      1   +   2   +   3   +   4   +   1   +   2   +   3   +   4   +
e|---------------------------------------------------------------------------|
B|---------------------------------------------------------------------------|
G|---------------------------------------------------------------------------|
D|------------9-11--------9-11--------11-11/--1414--9---9-9-9-9-9------------|
A|-----12-9---------12-9--------12-9--9--9-/--1212--7---7-7-7-7-7------------|
D|----0-----0------0-----0-----0------9--9-/--1212--7---7-7-7-7-7------------|

      1   +   2   +   3   +   4   +   1   +   2   +   3   +   4   +
e|---------------------------------------------------------------------------|
B|---------------------------------------------------------------------------|
G|---------------------------------------------------------------------------|
D|------------9-11--------9-11-----------------9-11--------9-11--------------|
A|-----12-9---------12-9---------12-9---12-9---------12-9---------12-9-------|
D|----0-----0------0-----0------0------0-----0------0-----0------0-----------|

      1   +   2   +   3   +   4   +   1   +   2   +   3   +   4   +
e|---------------------------------------------------------------------------|
B|---------------------------------------------------------------------------|
G|---------------------------------------------------------------------------|
D|------------9-11--------9-11--------14--14/--16\----11---------------------|
A|-----12-9---------12-9--------12-9--12--12/--14\----9----------------------|
D|----0-----0------0-----0-----0------12--12/--14\----9----------------------|
Pre-Chorus 2
      1   +   2   +   3   +   4   +   1   +   2   +   3   +   4   +
e|---------------------------------------------------------------------------|
B|---------------------------------------------------------------------------|
G|---------------------------------------------------------------------------|
D|--------11--1111--11----11--111111------9---9-9---9-----9---9-9-9----------|
A|--------9---9-9---9-----9---9-9-9-------7---7-7---7-----7---7-7-7----------|
D|----0-0---0-----0---0-0---0---------7-7---7-----7---7-7---7----------------|
      * *   *     *   * *   *         * *   *     *   * *   *                     
      1   +   2   +   3   +   4   +   1   +   2   +   3   +   4   +
e|---------------------------------------------------------------------------|
B|---------------------------------------------------------------------------|
G|---------------------------------------------------------------------------|
D|--------14--1414--14----14---141414-----11-----11--------14-----14---------|
A|--------12--1212--12----12---121212-----9------9---------12-----12---------|
D|----1212--12----12--1212---12--------9-9----9-9------1212---1212-----------|
      * *   *     *   * *    *         * *    * *      * *    * *                   
Chorus (x2)
      1   +   2   +   3   +   4   +   1   +   2   +   3   +   4   +
e|------------12--12----------12--12----------12--12--7---7---7/9------------|
B|----10--10--10--10--9---9---9---9---10--10--10--10--0---0-------10---------|
G|----9---9---9---9---9---9---9---9---9---9---9---9---9---9------------------|
D|----11--11--11--11--9---9---9---9---0---0---0---0---9---9------------------|
A|----9---9---9---9---0---0---0---0---0---0---0---0---0---0------------------|
D|------------------------------------0---0---0---0--------------------------|

Post-Chorus
      1   +   2   +   3   +   4   +   1   +   2   +   3   +   4   +
e|---------------------------------------------------------------------------|
B|---------------------------------------------------------------------------|
G|------------------9-------------------------------9------------------------|
D|--------11--9h11------11--9h11----------11--9h11------11--9h11p9-----------|
A|----------------------------------------------------------------12---------|
D|----0-0---0-----0---0---0-----------0-0---0-----0---0---0------------------|

      1   +   2   +   3   +   4   +   1   +   2   +   3   +   4   +
e|---------------------------------------------------------------------------|
B|---------------------------------------------------------------------------|
G|------------------9-------------------------------9------------------------|
D|--------11--9h11------11--9h11----------11--9h11------11--9h11p9-----------|
A|----0-0---0-----0---0---0-----------0-0---0-----0---0---0-------12---------|
D|---------------------------------------------------------------------------|

Verse 2
      1   +   2   +   3   +   4   +   1   +   2   +   3   +   4   +
e|---------------------------------------------------------------------------|
B|---------------------------------------------------------------------------|
G|---------------------------------------------------------------------------|
D|------------9-11--------9-11-----------------9-11--------9-11--------------|
A|-----12-9---------12-9---------12-9---12-9---------12-9---------12-9-------|
D|----0-----0------0-----0------0------0-----0------0-----0------0-----------|

      1   +   2   +   3   +   4   +   1   +   2   +   3   +   4   +
e|---------------------------------------------------------------------------|
B|---------------------------------------------------------------------------|
G|---------------------------------------------------------------------------|
D|------------9-11--------9-11--------11-11/--1414--9---9-9-9-9-9------------|
A|-----12-9---------12-9--------12-9--9--9-/--1212--7---7-7-7-7-7------------|
D|----0-----0------0-----0-----0------9--9-/--1212--7---7-7-7-7-7------------|

      1   +   2   +   3   +   4   +   1   +   2   +   3   +   4   +
e|---------------------------------------------------------------------------|
B|---------------------------------------------------------------------------|
G|---------------------------------------------------------------------------|
D|------------9-11--------9-11-----------------9-11--------9-11--------------|
A|-----12-9---------12-9---------12-9---12-9---------12-9---------12-9-------|
D|----0-----0------0-----0------0------0-----0------0-----0------0-----------|

      1   +   2   +   3   +   4   +   1   +   2   +   3   +   4   +
e|---------------------------------------------------------------------------|
B|---------------------------------------------------------------------------|
G|---------------------------------------------------------------------------|
D|------------9-11--------9-11--------14--14/--16\----11---------------------|
A|-----12-9---------12-9--------12-9--12--12/--14\----9----------------------|
D|----0-----0------0-----0-----0------12--12/--14\----9----------------------|

Pre-Chorus 2
      1   +   2   +   3   +   4   +   1   +   2   +   3   +   4   +
e|---------------------------------------------------------------------------|
B|---------------------------------------------------------------------------|
G|---------------------------------------------------------------------------|
D|--------11--1111--11----11--111111------9---9-9---9-----9---9-9-9----------|
A|--------9---9-9---9-----9---9-9-9-------7---7-7---7-----7---7-7-7----------|
D|----0-0---0-----0---0-0---0---------7-7---7-----7---7-7---7----------------|
      * *   *     *   * *   *         * *   *     *   * *   *                     
      1   +   2   +   3   +   4   +   1   +   2   +   3   +   4   +
e|---------------------------------------------------------------------------|
B|---------------------------------------------------------------------------|
G|---------------------------------------------------------------------------|
D|--------14--1414--14----14---141414-----11-----11--------14-----14---------|
A|--------12--1212--12----12---121212-----9------9---------12-----12---------|
D|----1212--12----12--1212---12--------9-9----9-9------1212---1212-----------|
      * *   *     *   * *    *         * *    * *      * *    * *                   
Chorus 2 (x2)
      1   +   2   +   3   +   4   +   1   +   2   +   3   +   4   +
e|------------12--12----------12--12----------12--12--7---7---7/9------------|
B|----10--10--10--10--9---9---9---9---10--10--10--10--0---0-------10---------|
G|----9---9---9---9---9---9---9---9---9---9---9---9---9---9------------------|
D|----11--11--11--11--9---9---9---9---0---0---0---0---9---9------------------|
A|----9---9---9---9---0---0---0---0---0---0---0---0---0---0------------------|
D|------------------------------------0---0---0---0--------------------------|

Post-Chorus 2
      1   +   2   +   3   +   4   +   1   +   2   +   3   +   4   +
e|---------------------------------------------------------------------------|
B|---------------------------------------------------------------------------|
G|------------------9-------------------------------9------------------------|
D|--------11--9h11------11--9h11----------11--9h11------11--9h11p9-----------|
A|----------------------------------------------------------------12---------|
D|----0-0---0-----0---0---0-----------0-0---0-----0---0---0------------------|

      1   +   2   +   3   +   4   +   1   +   2   +   3   +   4   +
e|---------------------------------------------------------------------------|
B|---------------------------------------------------------------------------|
G|------------------9-------------------------------9------------------------|
D|--------11--9h11------11--9h11----------11--9h11------11--9h11p9-----------|
A|----0-0---0-----0---0---0-----------0-0---0-----0---0---0-------12---------|
D|---------------------------------------------------------------------------|

Bridge A (x2)
      1   +   2   +   3   +   4   +   1   +   2   +   3   +   4   +
e|----------------------------------------------------9-9-9-9/10\5-----------|
B|------------5/7-7-7---------5/7-7-7----------------------------------------|
G|----------------------------------------------------5-5-5-5/6-\5-----------|
D|----4-4-4-4-2/4-4-4-4-4-4-4-2/4-4-4-7-7-7-7-7-7----------------------------|
A|----4-4-4-4---------4-4-4-4---------7-7-7-7-7-7----------------------------|
D|----4-4-4-4---------4-4-4-4---------7-7-7-7-7-7----------------------------|

Bridge B
      1   +   2   +   3   +   4   +   1   +   2   +   3   +   4   +
e|----12121212101010108-8-8-8-7-7-7-7-12121212101010108-8-8-8-7-7-7-7--------|
B|----x-x-x-x-x-x-x-x-x-x-x-x-x-x-x-x-x-x-x-x-x-x-x-x-x-x-x-x-x-x-x-x--------|
G|----9-9-9-9-7-7-7-7-5-5-5-5-4-4-4-4-9-9-9-9-7-7-7-7-5-5-5-5-4-4-4-4--------|
D|---------------------------------------------------------------------------|
A|---------------------------------------------------------------------------|
D|---------------------------------------------------------------------------|

      1   +   2   +   3   +   4   +   1   +   2   +   3   +   4   +
e|----1212121214141414161616161717171712121212141414141616161617-------------|
B|----x-x-x-x-x-x-x-x-x-x-x-x-x-x-x-x-x-x-x-x-x-x-x-x-x-x-x-x-x--------------|
G|----9-9-9-9-1010101013131313141414149-9-9-9-101010101313131314-------------|
D|---------------------------------------------------------------------------|
A|---------------------------------------------------------------------------|
D|---------------------------------------------------------------------------|

Chorus 3 (x4)
      1   +   2   +   3   +   4   +   1   +   2   +   3   +   4   +
e|------------12--12----------12--12----------12--12--7---7---7/9------------|
B|----10--10--10--10--9---9---9---9---10--10--10--10--0---0-------10---------|
G|----9---9---9---9---9---9---9---9---9---9---9---9---9---9------------------|
D|----11--11--11--11--9---9---9---9---0---0---0---0---9---9------------------|
A|----9---9---9---9---0---0---0---0---0---0---0---0---0---0------------------|
D|------------------------------------0---0---0---0--------------------------|

Outro
      1   +   2   +   3   +   4   +   1   +   2   +   3   +   4   +
e|---------------------------------------------------------------------------|
B|---------------------------------------------------------------------------|
G|---------------------------------------------------------------------------|
D|--------11--1111--11----11--111111------9---9-9---9-----9---9-9-9----------|
A|--------9---9-9---9-----9---9-9-9-------7---7-7---7-----7---7-7-7----------|
D|----0-0---0-----0---0-0---0---------7-7---7-----7---7-7---7----------------|
      * *   *     *   * *   *         * *   *     *   * *   *                     
      1   +   2   +   3   +   4   +   1   +   2   +   3   +   4   +
e|---------------------------------------------------------------------------|
B|---------------------------------------------------------------------------|
G|---------------------------------------------------------------------------|
D|--------14--1414--14----14---141414-----11-----11--------14-----14---------|
A|--------12--1212--12----12---121212-----9------9---------12-----12---------|
D|----1212--12----12--1212---12--------9-9----9-9------1212---1212-----------|
      * *   *     *   * *    *         * *    * *      * *    * *                  

************************************
| *   palm mute
| /   slide up
| \   slide down
| h   hammer-on
| p   pull-off
| ~   vibrato
| +   harmonic
| x   Mute note
| b   Bend
| pb  Pre-bend
| br  Bend release
| pbr Pre-bend release
| brb Bend release bend

************************************
Добавлено: 18.04.2016
Другие материалы по этой песне:
  • Аккорды и текст

Страница создана 18.04.2016
http://primanota.ru/misc-unsigned-bands/alive-energy-infinite-chords.htm
Привет, Гость.
Предлагаем пройти революционный курс по гитаре.
Подарок от PrimaNota.Ru, забирай!