PrimaNota.ru - самый крупный в мире бесплатный архив песенных текстов, аккордов, табулатур и нот


Misc Unsigned Bands - Ashala Rock - Whats Wrong Chief Having Some Trouble Walking - таба

Регистрация Запомнить меня
Войти через:  Facebook Google Twitter Vk Yandex Mail.ru

Misc Unsigned Bands - Ashala Rock - Whats Wrong Chief Having Some Trouble Walking - таба

Печатать
Просмотров: 34
-------------------------------------------------------------------------------
        What's Wrong Chief, Having Some Trouble Walking? - Ashala Rock
-------------------------------------------------------------------------------
Tabbed by: Tim Lundin III
E-mail: ashalarockisemo@gmail.com

Tuning: Standard

e|---------------------------------------------------------------------------|
B|---------------------------------------------------------------------------|
G|---------------------------------------------------------------------------|
D|-9~------------------------------------------------------------------------|
A|-7~------------------------------------------------------------------------|
E|-0~--7+--------------------------------------------------------------------|

e|---------------------------------------------------------------------------|
B|---------------------------------------------------------------------------|
G|--------------------------------------------------------------22222222-----|
D|-9999999999999999-6666666666666666-44444444444444444-22222222-22222222-----|
A|-7777777777777777-7777777777777777-66666666666666666-44444444-00000000-----|
E|-0000000000000000-0000000000000000-00000000000000000-00000000--------------|

Do each variation twice.                                 Build up
e|---------------------------------------------------------------------------|
B|---------------------------------------------------------------------------|
G|--------------------------------------------2~-----------------------------|
D|-----9---------6h9p6-------4----------2-----2~-----------999999999---------|
A|--7----7-----7------7---6----6-----4----4---0~-----------777777777---------|
E|-0--0----0--0--0-------0--0----0--0--0----0--------------000000000---------|

Then play the chord progression again and end on the E chord.


************************************

| /   slide up
| \   slide down
| h   hammer-on
| p   pull-off
| ~   vibrato
| +   harmonic
| x   Mute note
| b   Bend
| pb  Pre-bend
| br  Bend relea
| pbr Pre-bend release
| brb Bend release bend

************************************
Добавлено: 18.04.2016
Другие материалы по этой песне:
  • Аккорды и текст

Страница создана 18.04.2016
http://primanota.ru/misc-unsigned-bands/ashala-rock-whats-wrong-chief-having-some-trouble-walking-chords.htm
Привет, Гость.
Предлагаем пройти революционный курс по гитаре.
Подарок от PrimaNota.Ru, забирай!