PrimaNota.ru - самый крупный в мире бесплатный архив песенных текстов, аккордов, табулатур и нот


Misc Unsigned Bands - Anchored - Apollo - таба, видео

Регистрация Запомнить меня
Войти через:  Facebook Google Twitter Vk Yandex Mail.ru

Misc Unsigned Bands - Anchored - Apollo - таба, видео

Печатать
Просмотров: 37
-------------------------------------------------------------------------------
                             Apollo - Anchored
-------------------------------------------------------------------------------

Tuning:EADGBe
Capo: 2nd Fret
Intro
e|---------------------------------------------------------------------------|
B|---------------------------------------------------------------------------|
G|--7~--5~--4~--2~-----------------------------------------------------------|
D|-5---5---5---5-------------------------------------------------------------|
A|---------------------------------------------------------------------------|
E|---------------------------------------------------------------------------|


Intro 2
e|-----------------------------------------------|----|----------------------|
B|---3----3-----3----3-----3----3----3----3------|-3~-|----------------------|
G|--0-0--0-0---0-0--0-0---0-0--0-0--0-0--0-0-----|-0~-|----------------------|
D|-----------------------------------------------|-0~-|----------------------|
A|-----------------------------------------------|-0~-|----------------------|
E|-3----3-----2----2-----0----0----0----0--------|-3~-|----------------------|


 Verse                                  Chords/Strum
e|--------------------------------|-----|-----|-----|-----|-----|------------|
B|---3----3----3----3-----3----3--|--3--|--3--|--3--|--3--|--3--|------------|
G|--0-0--0-0--0-0--0-0---0-0--0-0-|--0--|--0--|--0--|--0--|--0--|------------|
D|----------------2---------------|--0--|--0--|--2--|--0--|--0--|------------|
A|-----------3---------2----------|--0--|--2--|--0--|--2--|--0--|------------|
E|-3----3-------------------2-----|--3--|--x--|--x--|--x--|--2--|------------|


Outro   Chords/Strum
e|--x---x----x----x---x---x---|--x--x---x--x---x--x----x-x-x-x-x-x-----------|
B|--8---13---12---8---5---8---|--8--5---8--5---8--5----8/5\8/5\8/3~----------|
G|--0---0----0----0---0---0---|--0--0---0--0---0--0----0/0\0/0\0/0~----------|
D|--0---0----0----0---0---0---|--0--0---0--0---0--0----0/0\0/0\0/0~----------|
A|--x---0----0----x---x---x---|--x--x---x--x---x--x----x-x-x-x-x-x-----------|
E|--8---0----0----8---5---8---|--8--5---8--5---8--5----8/5\8/5\8/3~----------|


************************************

| /   slide up
| \   slide down
| x   Mute note

************************************
Добавлено: 25.02.2016
Другие материалы по этой песне:
  • Аккорды и текст

Страница создана 25.02.2016
http://primanota.ru/misc-unsigned-bands/anchored-apollo-chords.htm
Привет, Гость.
Предлагаем пройти революционный курс по гитаре.
Подарок от PrimaNota.Ru, забирай!