PrimaNota.ru - самый крупный в мире бесплатный архив песенных текстов, аккордов, табулатур и нот


Misc Unsigned Bands - Andrew Whitman - Sinners Sonnet - таба

Регистрация Запомнить меня
Войти через:  Facebook Google Twitter Vk Yandex Mail.ru

Misc Unsigned Bands - Andrew Whitman - Sinners Sonnet - таба

Печатать
Просмотров: 90
-------------------------------------------------------------------------------
                      Andrew Whitman - SINNER'S SONNET
-------------------------------------------------------------------------------
Tabbed by: Eric McDonald
E-mail: ericjmcd@gmail.com

Tuning: MANDOLIN - G-D-A-E

Capo on 3rd. (TAB below shows w/o Capo.)

Repeat the whole pattern for each verse.  There are some flute? solos that
just repeat the first part and the final verse has a repetition of the second
part.

e|-----------------------------------------------------------------------|
B|--------|--------|-----------------------------------------------------|
G|--------|--------|--------|--------|--------|--------|--------|--------|
D|-----4--|-----3--|-----4--|-----4--|-----4--|-----3--|-----4--|-----4--|
A|---3--3-|---6--6-|---3--3-|---3--3-|---3--3-|---6--6-|---3--3-|---3--3-|
E|6---6---|8---8---|6---6---|6---6---|6---6---|8---8---|6---6---|6---6---|

e|-----------------------------------------------------------------------|
B|--------|--------|-----------------------------------------------------|
G|--------|--------|--------|--------|--------|--------|--------|--------|
D|-----3--|-----4--|-----4--|-----4--|-----4--|-----3--|-----4--|-----4--|
A|---8--8-|---6--6-|---6--6-|---3--3-|---3--3-|---6--6-|---3--3-|---3--3-|
E|6---6---|6---6---|6---6---|6---6---|6---6---|8---8---|6---6---|6---6---|


i'm leaving and there's no coming back
got no room for places like this in my sack
i fought all my battles I faced all my fears
i'm leaving after all of these years

i know that I'm welcome at home
they'll take me back in they won't leave me alone
i'll tell them my sorrows they'll share in my pain
it's home again and home again the same

now people been looking at me
i look through their eyes and I know what they see
the see me a sinner, condemn me to die
and I got no right to question them why

i live my life day after day
i try to do good and let light guide my way
but there's something that's missing, there's something not there
i search but that something's nowhere

then a stranger walks right up to me
she tells me she loves me and sets my heart free
now I've something to live for, for something I'd die
cause love's just something you can't buy
now I've something to live for, for something I'd die
cause love's just something you can't buy
Добавлено: 02.04.2016
Другие материалы по этой песне:
  • Аккорды и текст

Страница создана 02.04.2016
http://primanota.ru/misc-unsigned-bands/andrew-whitman-sinners-sonnet-chords.htm
Привет, Гость.
Предлагаем пройти революционный курс по гитаре.
Подарок от PrimaNota.Ru, забирай!