PrimaNota.ru - самый крупный в мире бесплатный архив песенных текстов, аккордов, табулатур и нот


Misc Television - Wwe - Sami Zayn - Worlds Apart - бас-таба

Регистрация Запомнить меня
Войти через:  Facebook Google Twitter Vk Yandex Mail.ru

Misc Television - Wwe - Sami Zayn - Worlds Apart - бас-таба

Печатать
Просмотров: 102
Уроки эстрадного вокала в Санкт-Петербурге
-------------------------------------------------------------------------------
                             Sami Zayn - Worlds Apart - WWE
-------------------------------------------------------------------------------
Tabbed by: Stancranford
E-mail: simonhawkinsuk@gmail.com

Tuning: DADG

Intro

G|----------------------------------------------------------|
D|----------------------------------------------------------|
A|----------------------------------------------------/3-3--|
D|-5-5-5-5-5-5-5-5-5-5-5-5-5-5-5-5-5-5-5-5-5-5-5-5-5--------|

Main Riff

G|------------------------------------------------------------------|
D|------------------------------------------------------------------|
A|----------------------------------3-3-3-3-3-3-3-3-0-0-0-0-0-0-0-0-|
D|-0-0-0-0-0-0-0-0-/5-5-5-5-5-5-5-5---------------------------------|

G|---------------------------------------------------|
D|---------------------------------------------------|
A|----------------------------------3-3-3-3-3-3-3-3--|
D|-0-0-0-0-0-0-0-0-/5-5-5-5-5-5-5-5------------------|

Chorus

G|-------------------------------------------------------------------|
D|-------------------------------------------------------------------|
A|-------------------------------------------------------------------|
D|-5-5-5-5-5-5-5-5-5-5-5-5-5-5-5-5-0-0-0-0-0-0-0-0-0-0-0-0-0-0-0-0-0-|

G|-------------------------------------------------------------------|
D|-------------------------------------------------------------------|
A|-3-3-3-3-3-3-3-3-3-3-3-3-3-3-3-3-----------------3-3-3-3-3-3-3-3-3-|
E|---------------------------------2-2-2-2-2-2-2-2-------------------|

Order:
Vocal Intro    |
Intro x 1      |
Main Riff x 1  |
Chorus x 2     | 
Rest           |
Main Riff x 1  | Loop x 2
Chorus x 2     |
Rest           |
Intro x 1      |
Main Riff x 1  |
Chorus x 2     |



| /  slide up

===============================================================================
Добавлено: 08.09.2015
Другие материалы по этой песне:
  • Аккорды и текст

Страница создана 08.09.2015
http://primanota.ru/misc-television/wwe-sami-zayn-worlds-apart-chords.htm
Привет, Гость.
Предлагаем пройти революционный курс по гитаре.
Подарок от PrimaNota.Ru, забирай!