PrimaNota.ru - самый крупный в мире бесплатный архив песенных текстов, аккордов, табулатур и нот


Misc Television - Wwe - Triple H - The Game - бас-таба, видео

Регистрация Запомнить меня
Войти через:  Facebook Google Twitter Vk Yandex Mail.ru

Misc Television - Wwe - Triple H - The Game - бас-таба, видео

Печатать
Просмотров: 151
-------------------------------------------------------------------------------
                        Triple H - The Game - WWE/Motorhead
-------------------------------------------------------------------------------
Tabbed by: Stancranford
E-mail: simonhawkinsuk@gmail.com

Tuning: Eb,Ab,Db,Gb

Intro 1

Gb|---------------------------------------|
Db|---------------------------------------|
Ab|---------------------------------------|
Eb|-0-------0--------0-0-------0----------|

Intro 2

Gb|-----------------------------------------------------------------|
Db|-----------------------------------------------------------------|
Ab|-----------------------------------------------------------------|
Eb|-0-0-0--0-0-0---0-0-0--0-0-0---0-0-0--0-0-0---0-0-0--0-0-0--12\--|

Main Riff
                     x3
Gb|---------------------|---------|
Db|---------------------|---------|
Ab|----------------3-2--|---------|
Eb|-0-0-3-2--0-0-0------|-0-0-3-2-|

Chorus

Gb|-----------------------------|
Db|-----------------------------|
Ab|-----------------------------|
Eb|-0-----3---5---0-----5---3---|

Breakdown
        x4                     x4
Gb|-------|-----------------------|
Db|-------|-----------------------|
Ab|-------|-----------------------|
Eb|-0-0-0-|-0-0-0-6-0-0-0-6h7p6-5-|

Outro

Gb|-----------------------|
Db|-----------------------|
Ab|-----------------------|
Eb|-0-0-0-6-0-0-0-6h7p6-5-|


Order:
Intro 1 x 1
Intro 2 x 1
Main Riff x 2
Chorus x 4
Breakdown x 1
Intro 2 x 1
Main Riff x 2
Chorus x 4
Outro to Fade Out




| \  slide down
| h  hammer-on
| p  pull-off

===============================================================================
Добавлено: 08.09.2015
Другие материалы по этой песне:
  • Аккорды и текст

Страница создана 08.09.2015
http://primanota.ru/misc-television/wwe-triple-h-game-chords.htm
Привет, Гость.
Предлагаем пройти революционный курс по гитаре.
Подарок от PrimaNota.Ru, забирай!