PrimaNota.ru - самый крупный в мире бесплатный архив песенных текстов, аккордов, табулатур и нот


Misc Television - Wwe - Vince Mcmahon - No Chance In Hell - бас-таба

Регистрация Запомнить меня
Войти через:  Facebook Google Twitter Vk Yandex Mail.ru

Misc Television - Wwe - Vince Mcmahon - No Chance In Hell - бас-таба

Печатать
Просмотров: 94
-------------------------------------------------------------------------------
                   Vince McMahon - No Chance In Hell - WWE
-------------------------------------------------------------------------------
Tabbed by: Stancranford
E-mail: simonhawkinsuk@gmail.com

Tuning: EADG

Intro

G|-------------------------------------------------|
D|-------------------------------------------------|
A|-------------------------------------------------|
E|-----------------/5-------------5----/5----------|

Verse

G|---------------------------------------------------|
D|----------------------5h7------------------5h7-7-7-|
A|-12\-----------------------------------------------|
E|------5-5--3--5-5--3-------5-5--3--5-5--3----------|

G|---------------------------------------------------|
D|---------------------------------------------------|
A|-----------------------------------------12\--/10--|
E|-5-5--3--5-5--3--1h3--5-5--3--3-2-5-5--------------|

Chorus

G|--------------------------------------------------------------------------|
D|--------------------------------------------------------------------------|
A|----3------------------3--5-3-------------3------------------3------------|
E|-5-----2-3-2-3-2-1--5---------5-3-2-3--5-----2-3-2-3-2-1--5-----2-2--5-5--|

Breakdown

G|----------------------1--------------------------------------|
D|---------1h3------------3-1----------1h3p1----------1--1-1-3-|
A|-------------------------------------------------------------|
E|-1-1--1-------1-1--1---------1-1--1---------1-1--1-----------|

G|---------3-------------1------------------|
D|------------1------------3-1----------1h3-|
A|------------------------------------------|
E|-1-1--1--------1-1--1---------1-1--1------|

Order:
Intro x 1
Verse x 1
Chorus x 2
Breakdown x 1
Chorus x 2


| /  slide up
| \  slide down
| h  hammer-on
| p  pull-off

===============================================================================
Добавлено: 08.09.2015
Другие материалы по этой песне:
  • Аккорды и текст

Страница создана 08.09.2015
http://primanota.ru/misc-television/wwe-vince-mcmahon-no-chance-in-hell-chords.htm
Привет, Гость.
Предлагаем пройти революционный курс по гитаре.
Подарок от PrimaNota.Ru, забирай!