PrimaNota.ru - самый крупный в мире бесплатный архив песенных текстов, аккордов, табулатур и нот


Misc Television - Wwe - The Godfather - The Ho Train - бас-таба

Регистрация Запомнить меня
Войти через:  Facebook Google Twitter Vk Yandex Mail.ru

Misc Television - Wwe - The Godfather - The Ho Train - бас-таба

Печатать
Просмотров: 75
-------------------------------------------------------------------------------
                      The Godfather - The Ho Train - WWE
-------------------------------------------------------------------------------
Tabbed by: Stancranford 
E-mail: simonhawkinsuk@gmail.com

Tuning: DADG

All notes slapped except where indicated

G|----------------------------------------------|
D|-------------------------------------0---0h2--|
A|----------------/3---------------------2------|
D|-2^---2---2^--------2^---2--0---2^------------|
                   P                
 
G|------------------------------------------------|
D|--------------------2---------------------------|
A|-----------------3\------------------7-x-9-10---|
D|-2^-x-2--0---2^--------2^--2--0--2^-----------5-|
                   P

G|----------------------------------------------------------|
D|----------------------------------------------------------|
A|----------------------------------------------------------|
D|-7h8p7--5---5--7--/8-5---7h8p7--5---x-5--/8-7--/8-7-5-7-5-|


G|----------------------------------------------------------------------------------|
D|----------------------------------------------------------------------------------|
A|----------------------------------------------------------------------------------|
D|-/7-7h8-5--7--5--7-x-7-x-8-x-5-x-5-7-5---7h8p7-5-7--5-5-7--9-9-9-9-9--x-x-x-0-2-0-|

G|---------------------------------------------------4----|
D|----2---------2-------------2-2--------2-----x-2-2---0--|
A|------5---------5--x-/5---------------------------------|
D|-2^-----5--2^------------2^------5--2^------------------|
                                                     P

G|-------------------------4-4p2--------------------------|
D|-----------------------2------------2-----2-------------|
A|--------------------------------------------5--7-5--7-7-|
D|-2^---2--5---2^---x-2-----------2^-----5----------------|
                           P P

Loop tab until finish

| ^  bend note
| P  pop note  
| /  slide up
| \  slide down
| h  hammer-on
| p  pull-off
| x  Mute note
===============================================================================
Добавлено: 08.09.2015
Другие материалы по этой песне:
  • Аккорды и текст

Страница создана 08.09.2015
http://primanota.ru/misc-television/wwe-godfather-ho-train-chords.htm
Привет, Гость.
Предлагаем пройти революционный курс по гитаре.
Подарок от PrimaNota.Ru, забирай!