PrimaNota.ru - самый крупный в мире бесплатный архив песенных текстов, аккордов, табулатур и нот


Misc Television - Better Call Saul - таба, видео

Регистрация Запомнить меня
Войти через:  Facebook Google Twitter Vk Yandex Mail.ru

Misc Television - Better Call Saul - таба, видео

Печатать
Просмотров: 238
-------------------------------------------------------------------------------
                             Better Call Saul - Better Call Saul Intro
-------------------------------------------------------------------------------
Recorded by Little Barrie for the television show "Better Call Saul".

Tabbed by: Mike Barela
E-mail:mariache6@hotmail.com

Tuning: Standard,  Heavy Tremolo Bar on the Chords


      A      C#m      C      Am      slight bend
e|----5~~-----9-------8~~----12--10--8br-------------------------------------|
B|----5~~------9------8~~----13x---------------------------------------------|
G|----6~~--/9---9~----9~~----14x---------------------------------------------|
D|----7~~------------10~~----------------------------------------------------|
A|---------------------------------------------------------------------------|
E|---------------------------------------------------------------------------|

      A      A7       E5 Palm muted
e|----5~~------9-------------------------------------------------------------|
B|----5~~-------8~~----------------------------------------------------------|
G|----6~~---/9---------------------------------------------------------------|
D|----7~~--------------------------------------------------------------------|
A|--------------------2---2-2-2----------------------------------------------|
E|--------------------0---0-0-0----------------------------------------------|


     Rake
e|---------------------------------------------------------------------------|
B|---------------------------------------------------------------------------|
G|----9--8--7--5----5-7---------------------Song cuts off -------------------|
D|----x----------------------------------------------------------------------|
A|----x---------/7-------0-3br-0---------------------------------------------|
E|---------------------------------------------------------------------------|

Please Rate and leave comments!

https://www.youtube.com/watch?v=qcJ3fqWT3a0

************************************

| /   slide up
| \   slide down
| h   hammer-on
| p   pull-off
| ~   vibrato
| +   harmonic
| x   Mute note
| b   Bend
| pb  Pre-bend
| br  Bend release
| pbr Pre-bend release
| brb Bend release bend

************************************
Добавлено: 04.07.2015
Другие материалы по этой песне:

Страница создана 04.07.2015
http://primanota.ru/misc-television/better-call-saul-chords.htm
Привет, Гость.
Предлагаем пройти революционный курс по гитаре.
Подарок от PrimaNota.Ru, забирай!