PrimaNota.ru - самый крупный в мире бесплатный архив песенных текстов, аккордов, табулатур и нот


Misc Television - Wwe - Triple H - My Time - бас-таба, видео

Регистрация Запомнить меня
Войти через:  Facebook Google Twitter Vk Yandex Mail.ru

Misc Television - Wwe - Triple H - My Time - бас-таба, видео

Печатать
Просмотров: 90
-------------------------------------------------------------------------------
                          Triple H - My Time - WWE
-------------------------------------------------------------------------------
Tabbed by: Stancranford
E-mail: simonhawkinsuk@gmail.com

Tuning: EADG

Intro

G|-------------|------------------------------|
D|-------------|------------------------------|
A|-------------|------------------------------|
E|-0-----------|-0------0-------0------0------|

Bridge

G|-----------------------------|
D|-----------------------------|
A|-----------------------------|
E|-0-0---0-0-0---0-0---0-0-0---|

Bridge Fill 1

G|---------------------------|
D|---------------------------|
A|-------------5-------------|
E|-0-0---0-0-0---3-0---0-----|

Verse

G|-----------------------|
D|-----------------------|
A|-------------------3-2-|
E|-0--0-0-3-2-0--0-0-----|

Bridge Fill 2

G|---------------|
D|---------------|
A|---------------|
E|-0-0---0-0-0---|

Chorus
                               x2
G|-------------------------------|------------------------------------|-------------------------------|
D|-------------------------------|------------------------------------|-------------------------------|
A|-------------------------------|------------------------------------|-------------------------------|
E|-0---0--3--5--0---0--5--3--0---|-0---0--3--5--0---0-5-5-5--3-3-3--0-|-0---0--3--5--0---0-5-5-5--3-3-|

Middle Bass Fill

G|----------------------|
D|----------------------|
A|----------------------|
E|-0-0-0-5-0-0-0-5-3--3-|


Breakdown/Outro

G|----------------------------------------------------------|
D|----------------------------------------------------------|
A|----------------------------------------------------------|
E|-0-0-0-5-0-0-0-5-3-0-0-0-5-0-0-0-5-3-0-0-0-5-0-0-0-5-3--3-|

Order:
Vocal Intro
Intro x 1
Bridge x 1
Bridge Fill 1 x 1
Verse x 4
Bridge x 1
Bridge Fill 2 x 1
Chorus x 1
Rest
Middle Bass Fill x 1
Verse x 2
Bridge x 2
Bridge Fill 2 x 1
Chorus x 1
Rest
Breakdown x 1
Rest
Verse x 4
Bridge x 2
Bridge Fill 2 x 1
Chorus x 1
Rest
Outro x 1


===============================================================================
Добавлено: 08.09.2015
Другие материалы по этой песне:
  • Аккорды и текст

Страница создана 08.09.2015
http://primanota.ru/misc-television/wwe-triple-h-my-time-chords.htm
Привет, Гость.
Предлагаем пройти революционный курс по гитаре.
Подарок от PrimaNota.Ru, забирай!