PrimaNota.ru - самый крупный в мире бесплатный архив песенных текстов, аккордов, табулатур и нот


Misc Television - Wwe - The Legacy - A New Day - бас-таба, видео

Регистрация Запомнить меня
Войти через:  Facebook Google Twitter Vk Yandex Mail.ru

Misc Television - Wwe - The Legacy - A New Day - бас-таба, видео

Печатать
Просмотров: 70
-------------------------------------------------------------------------------
                          The Legacy - A New Day - WWE
-------------------------------------------------------------------------------
Tabbed by: Stancranford
E-mail: simonhawkinsuk@gmail.com

Tuning: Eb,Ab,Db,Gb

Main Riff

Gb|-----------------------------------|
Db|-----------------------------------|
Ab|-----------------------------2-2-2-|
Eb|-0-0-0-3-3-3-5-5-3-3-3-5-5-5-------|

Bridge

Gb|-----------------------------------------------------------------|
Db|-----------------------------------------------------------------|
Ab|-3-3-3-3-3-3-3-3-----------------------------------------5-5-5-5-|
Eb|-----------------5-5-5-5-5-5-5-5-0-0-0-0-0-0-0-0-0-0-0-0---------|

Gb|---------------------------------------------------------------------------------|
Db|---------------------------------------------------------------------------------|
Ab|-3-3-3-3-3-3-3-3---------------------------------2-2-2-2-2-2-2-2-2-2-2-2-2-2-2-2-|
Eb|-----------------5-5-5-5-5-5-5-5-3-3-3-3-3-3-3-3---------------------------------|

Verse

Gb|-------------------------------------------------------------------|
Db|-------------------------------------------------------------------|
Ab|-------------------------------------------------------------------|
Eb|-0-0-0-0-0-0-0-0-3-3-3-3-3-3-3-3-5-5-5-5-5-5-5-5-3-3-3-3-3-5-3-2-0-|

Gb|-------------------------------------------------------------------|
Db|-------------------------------------------------------------------|
Ab|---------------------------------/5-5-5-5-5-5-5-5-3-3-3-3-3-2-2-2--|
Eb|-0-0-0-0-0-0-0-0-3-3-3-3-3-3-3-3-----------------------------------|

Breakdown

Gb|------------------------------------|---------------------------------------|
Db|------------------------------------|---------------------------------------|
Ab|------------------------------------|---------------------------5-----------|
Eb|-0----------3-----------5-----------|-0------------3------------------------|

Gb|-----------------------------------------------------------------|
Db|-----------------------------------------------------------------|
Ab|-----------------------------------------------------------------|
Eb|-0-0-0-0-0-0-0-0-3-3-3-3-3-3-3-3-5-5-5-5-5-5-5-5-5-5-5-5-5-5-5-5-|

Gb|------------------------------------------------------------------|
Db|------------------------------------------------------------------|
Ab|---------------------------------/5-5-5-5-5-5-5-5-5-5-5-5-5-5-5-5-|
Eb|-0-0-0-0-0-0-0-0-3-3-3-3-3-3-3-3----------------------------------|

Order:
Guitar Intro
Main Riff x 4
Bridge x 1
Main Riff x 2
Verse x 2
Main Riff x 4
Bridge x 1
Breakdown x 1
Rest
Main Riff x 8


| /  slide up

===============================================================================
Добавлено: 08.09.2015
Другие материалы по этой песне:
  • Аккорды и текст

Страница создана 08.09.2015
http://primanota.ru/misc-television/wwe-legacy-a-new-day-chords.htm
Привет, Гость.
Предлагаем пройти революционный курс по гитаре.
Подарок от PrimaNota.Ru, забирай!