PrimaNota.ru - самый крупный в мире бесплатный архив песенных текстов, аккордов, табулатур и нот


Misc Soundtrack - One Piece - Die Legende - таба, видео

Регистрация Запомнить меня
Войти через:  Facebook Google Twitter Vk Yandex Mail.ru

Misc Soundtrack - One Piece - Die Legende - таба, видео

Печатать
Просмотров: 195
Уроки эстрадного вокала в Санкт-Петербурге
Servus, im Intro kommen 2 Gitarren zum Einsatz. Demnach gibt's also die Tabs für beide Gitarren.
Prinzipiell ist es aber auch möglich beide gemeinsam auf einer Gitarre zu spielen.
Ich wünsche viel Spaß! :)

bpm: 85





Gitarre 1

E|----9--7--9--5--7--4--5-----9--7--9--5--7--4--5--|----9--7--9--5--7--4--5-----9--7--9--5--7--4--5--|
B|-7-----------------------7-----------------------|-5-----------------------5-----------------------|
G|-------------------------------------------------|-------------------------------------------------|
D|-------------------------------------------------|-------------------------------------------------|
A|-------------------------------------------------|-------------------------------------------------|
E|-------------------------------------------------|-------------------------------------------------|


E|----9--7--9--5--7--4--5-----9--7--9--5--7--4--5--|----9--7--9--5--7--4--5-----9--7--9--5--7--4--5--|
B|-------------------------------------------------|-------------------------------------------------|
G|-8-----------------------8-----------------------|-7-----------------------7-----------------------|
D|-------------------------------------------------|-------------------------------------------------|
A|-------------------------------------------------|-------------------------------------------------|
E|-------------------------------------------------|-------------------------------------------------|


E|----9--7--9--5--7--4--5-----9--7--9--5--7--4--5--|----9--7--9--5--7--4--5-----9--7--9--5--7--4--5--|
B|-7-----------------------7-----------------------|-7-----------------------7-----------------------|
G|-------------------------------------------------|-------------------------------------------------|
D|-------------------------------------------------|-------------------------------------------------|
A|-------------------------------------------------|-------------------------------------------------|
E|-------------------------------------------------|-------------------------------------------------|


E|----9--7--9--5--7--4--5--|
B|-7-----------------------|
G|-------------------------|
D|-------------------------|
A|-------------------------|
E|-------------------------|





Gitarre 2

E|-------------------------------------------------|-------------------------------------------------|
B|-------------------------------------------------|-------------------------------------------------|
G|-------------------------------------6-----------|-------------------------------------6-----------|
D|-4-----------------------4-----------------------|-2-----------------------2-----------------------|
A|-------------------------------------------------|-------------------------------------------------|
E|-2-----------------------------------------------|-------------------------------------------------|





Gitarre 1 + 2

E|----9--7--9--5--7--4--5-----9--7--9--5--7--4--5--|----9--7--9--5--7--4--5-----9--7--9--5--7--4--5--|
B|-7-----------------------7-----------------------|-5-----------------------5-----------------------|
G|-------------------------------------6-----------|-------------------------------------6-----------|
D|-4-----------------------4-----------------------|-2-----------------------2-----------------------|
A|-------------------------------------------------|-------------------------------------------------|
E|-2-----------------------------------------------|-------------------------------------------------|


E|----9--7--9--5--7--4--5-----9--7--9--5--7--4--5--|----9--7--9--5--7--4--5-----9--7--9--5--7--4--5--|
B|-------------------------------------------------|-------------------------------------------------|
G|-8-----------------------8-----------------------|-7-----------------------7-----------------------|
D|-------------------------------------------------|-------------------------------------------------|
A|-------------------------------------------------|-------------------------------------------------|
E|-------------------------------------------------|-------------------------------------------------|


E|----9--7--9--5--7--4--5-----9--7--9--5--7--4--5--|----9--7--9--5--7--4--5-----9--7--9--5--7--4--5--|
B|-7-----------------------7-----------------------|-7-----------------------7-----------------------|
G|-------------------------------------------------|-------------------------------------------------|
D|-------------------------------------------------|-------------------------------------------------|
A|-------------------------------------------------|-------------------------------------------------|
E|-------------------------------------------------|-------------------------------------------------|


E|----9--7--9--5--7--4--5--|
B|-7-----------------------|
G|-------------------------|
D|-------------------------|
A|-------------------------|
E|-------------------------|
Добавлено: 06.06.2015
Другие материалы по этой песне:
  • Аккорды и текст

Страница создана 06.06.2015
http://primanota.ru/misc-soundtrack/one-piece-die-legende-chords.htm
Привет, Гость.
Предлагаем пройти революционный курс по гитаре.
Подарок от PrimaNota.Ru, забирай!