PrimaNota.ru - самый крупный в мире бесплатный архив песенных текстов, аккордов, табулатур и нот


Misc Soundtrack - Calabromas - таба

Регистрация Запомнить меня
Войти через:  Facebook Google Twitter Vk Yandex Mail.ru

Misc Soundtrack - Calabromas - таба

Печатать
Просмотров: 112
-------------------------------------------------------------------------------
                             CALABROMAS - Tema de cortina
-------------------------------------------------------------------------------

Tabbed by: Federico Bautista
E-mail: bautistafederico@outlook.com
January 2015

Tempo: 60 bpm
2/4

E|--------|--------|--------|-0--0-0-0-0-0||--5--0-0----|
B|--------|--------|-0--0---|-0-----------||---------3-1|
G|--------|-1--1---|-1--1---|-1-----------||*-----------|
D|-2--2---|-2--2---|-2--2---|-2-----------||*-----------|
A|-2--2---|--------|--------|-2-----------||--0---------|
E|-0--0---|-0--0---|-0--0---|-0-----------||--------0---|


E|----0-0-0-0-0|-4--0------|----0-0-0-0-0|-5--5-5--3-0|-1--1-1-1-1-1|-0-0-7-5-4|
B|-3-----------|------3-1-0|-1-----------|------------|-------------|----------|
G|-------------|-----------|-------------|------------|-------------|----------|
D|-2-----------|-2---------|-------------|------------|-0-----------|----------|
A|------2------|-------2---|-0-----------|-0------4---|------0------|----------|
E|-------------|-----------|------0------|------------|-------------|-0----7---|

   _________________ _________
  |1.              ||2.      |
E|-5---0-0-0-0-0--||-5-------|
B|----------------||-5-------|
G|---------------*||-5-------|
D|---------------*||---------|
A|-0--------------||-0-------|
E|---0------------||---------|
Добавлено: 06.06.2015
Другие материалы по этой песне:
  • Аккорды и текст

Страница создана 06.06.2015
http://primanota.ru/misc-soundtrack/calabromas-chords.htm
Привет, Гость.
Предлагаем пройти революционный курс по гитаре.
Подарок от PrimaNota.Ru, забирай!